#----------------------------------PLEASE NOTE---------------------------------#
#This file is the author's own work and represents their interpretation of the #
#song. You may only use this file for private study, scholarship, or research. #
#Unless specified otherwise, this is NOT an official tab from the band members.#
#------------------------------------------------------------------------------#

  Visit MetalTabs.com for more metal tablature
  
Band:  Malevolent Creation
Album: The Fine Art of Murder
Song:  Instinct Evolved

Copyright (1998)  (Pavement Music) (1998)
Version 1.0 - (DATE)

Transcribed By: (l0rdpj@yahoo.com)


/  - slide up to
\  - slide down to
p  - pull
t  - tap


Tuning C# F# B E G# C#



	Here ya go, enjoy! Please e-mail any corrections/suggestions!





Left guitar
|-----------------------------------------------------------------------------|
|-----------------------------------------------------------------------------|
|-----------------------------------------------------------------------------|
|-----------------------------------------------------------------------------|
|-3333333333333333----------------3333333355552222----------------------------|
|-----------------0000000000000000----------------0000000000000000------------|

Right Guitar
|-----------------------------------------------------------------------------|
|-----------------------------------------------------------------------------|
|-----------------------------------------------------------------------------|
|-----------------------------------------------------------------------------|
|---------------------------------3333333355552222----------------------------|
|-----------15\\\0000000000000000----------------0000000000000000------------|

Both Guitars
|-----------------------------------------------------------------------------|
|-----------------------------------------------------------------------------|
|-----------------------------------------------------------------------------|
|-----------------------------------------------------------------------------|
|-3333333333333333----------------33333333355552222---------------------------|
|-----------------0000000000000000-----------------000000000000000------------|

Left Guitar 2x
|-----------------------------------------------------------------------------|
|-----------------------------------------------------------------------------|
|-----------------------------------------------------------------------------|
|-----------------------------------------------------------------------------|
|-3333333333333333----------------3333333355552222----------------------------|
|-----------------0000000000000000----------------000000000000000-------------|

Right Guitar 2X
|-----------------------------------------------------------------------------|
|-----------------------------------------------------------------------------|
|-----------------------------------------------------------------------------|
|-5555555544554422----------------5555555577779977----------------------------|
|-----------------------------------------------------------------------------|
|-----------------0000000000000000-----------------0000000000000000-----------|




Both Guitars
|-----------------------------------------------------------------------------|
|-----------------------------------------------------------------------------|
|-----------------------------------------------------------------------------|
|-------------t-p-t-p-------------------------t-p-t-p------444455555544445555-|
|-333333333333-5-3-5-2222222255551111-33333333-5-3-5-222222-------------------|
|-----------------------------------------------------------------------------|

Left Guitar
|-----------------------------------------------------------------------------|
|-----------------------------------------------------------------------------|
|-----------------------------------------------------------------------------|
|-------------t-p-t-p-------------------------t-p-t-p------444455555544445555-|
|-333333333333-5-3-5-2222222255551111-33333333-5-3-5-222222-------------------|
|-----------------------------------------------------------------------------|

Right Guitar
|-----------------------------------------------------------------------------|
|-----------------------------------------------------------------------------|
|------------t-p-t-p--------------------------t-p-t-p------666677777766667777-|
|555555555555-7-5-7-4444444777733333--55555555-7-5-7-222222-------------------|
|-----------------------------------------------------------------------------|
|-----------------------------------------------------------------------------|




Both Guitars
|-----------------------------------------------------------------------------|
|-----------------------------------------------------------------------------|
|-----------------------------------------------------------------------------|
|-----------------------------------------------------------------------------|
|---------2222--------444455554444--------2222-------44445555444--------------|
|-22222222----22222222------------22222222----2222222-------------------------|

|-----------------------------------------------------------------------------|
|-----------------------------------------------------------------------------|
|-----------------------------------------------------------------------------|
|-----------------------------------------------------------------------------|
|---------1111--------444433334444--------1111-------444433334444-------------|
|-11111111----11111111------------11111111----1111111-------------------------|

|-----------------------------------------------------------------------------|
|-----------------------------------------------------------------------------|
|-----------------------------------------------------------------------------|
|-----------------------------------------------------------------------------|
|---------2222--------444455554444--------2222-------44445555444--------------|
|-22222222----22222222------------22222222----2222222-------------------------|

Left Guitar
|-----------------------------------------------------------------------------|
|-----------------------------------------------------------------------------|
|-----------------------------------------------------------------------------|
|-----------------------------------------------------------------------------|
|---------1111--------444433334444--------1111-------444433334444-------------|
|-11111111----11111111------------11111111----1111111-------------------------|

Right Guitar
|-----------------------------------------------------------------------------|
|-----------------------------------------------------------------------------|
|----------------------------------------------------555566665566-------------|
|-----------------------------------------------------------------------------|
|---------1111--------444433334444--------1111--------------------------------|
|-11111111----11111111------------11111111----1111111-------------------------|




Both Guitars 2x
|-----------------------------------------------------------------------------|
|-----------------------------------------------------------------------------|
|-----------------------------------------------------------------------------|
|-----------------------------------------------------------------------------|
|-3333333333333333----------------33333333355552222---------------------------|
|-----------------0000000000000000-----------------000000000000000------------|

Left Guitar
|-----------------------------------------------------------------------------|
|-----------------------------------------------------------------------------|
|-----------------------------------------------------------------------------|
|-----------------------------------------------------------------------------|
|-3333333333333333----------------3333333355552222----------------------------|
|-----------------0000000000000000----------------000000000000000-------------|

Right Guitar
|-----------------------------------------------------------------------------|
|-----------------------------------------------------------------------------|
|-----------------------------------------------------------------------------|
|-5555555544554422----------------5555555577779977----------------------------|
|-----------------------------------------------------------------------------|
|-----------------0000000000000000----------------0000000000000000------------|

Left Guitar
|-----------------------------------------------------------------------------|
|-----------------------------------------------------------------------------|
|-----------------------------------------------------------------------------|
|-----------------------------------------------------------------------------|
|-3333333333333333----------------3333333355552222----------------------------|
|-----------------0000000000000000----------------3333333322225555------------|

Right Guitar
|-----------------------------------------------------------------------------|
|-----------------------------------------------------------------------------|
|-----------------------------------------------------------------------------|
|-5555555544554422----------------5555555577779977----------------------------|
|-----------------------------------------------------------------------------|
|-----------------0000000000000000----------------3333333322225555------------|




Left Guitar
|-----------------------------------------------------------------------------|
|-----------------------------------------------------------------------------|
|-----------------------------------------------------------------------------|
|-9---9-----------9---9-----------9---9-----------9---9--9/10-11/13-----------|
|-7---7-----------7---7-----------7---7-----------7---7-7/8--9/11------------|
|-7---7-----------7---7-----------7---7-----------7---7-----------------------|

Right Guitar
|-----------------------------------------------------------------------------|
|-----------------------------------------------------------------------------|
|-----------------------------------------------------------------------------|
|-2---2----------2---2------------2---2-----------2---2--9/10-11/13-----------|
|-2---2----------2---2------------2---2-----------2---2-7/8-9/11------------|
|-0---0----------0---0------------0---0-----------0---0-----------------------|

Left Guitar
|-----------------------------------------------------------------------------|
|-----------------------------------------------------------------------------|
|-----------------------------------------------------------------------------|
|-9---9----------9---9------------9---9-----------9---9-13\12-12\10----------|
|-7---7----------7---7------------7---7-----------7---7-11\10-10\8-----------|
|-7---7----------7---7------------7---7-----------7---7-----------------------|

Right Guitar
|-----------------------------------------------------------------------------|
|-----------------------------------------------------------------------------|
|-----------------------------------------------------------------------------|
|-2---2---------2---2-------------2---2-----------2---2-13\12-12\10----------|
|-2---2---------2---2-------------2---2-----------2---2-11\10-10\8-----------|
|-0---0---------0---0-------------0---0-----------0---0-----------------------|

	Repeat above 1x




Right Guitar Repeat 8x
|-----------------------------------------------------------------------------|
|-----------------------------------------------------------------------------|
|-----------------------------------------------------------------------------|
|-2---2---------2---2-------------2---2-----------2---2-----------------------|
|-2---2---------2---2-------------2---2-----------2---2----------------------|
|-0---0---------0---0-------------0---0-----------0---0-----------------------|

Left Guitar 2x
|-----------------------------------------------------------------------------|
|-----------------------------------------------------------------------------|
|-----------------------------------------------------------------------------|
|-10-----------------12/13-12/13--9-------------------------------------------|
|-8------------------10/11-10/11--7-------------------------------------------|
|----------------------------------------------------------------------------|

|-----------------------------------------------------------------------------|
|-----------------------------------------------------------------------------|
|-----------------------------------------------------------------------------|
|-10-----------------12/13-12/13-12---------------13--9-----------------------|
|-8------------------10/11-10/11-10---------------11--7-----------------------|
|----------------------------------------------------------------------------|

Left Guitar 3x (last 2x With Below Center Guitar)
|-----------------------------------------------------------------------------|
|-----------------------------------------------------------------------------|
|-10-----------------12/15-14/15--9-------------------------------------------|
|-10-----------------12/13-12/13--9-------------------------------------------|
|-8------------------10/11-10/11--7-------------------------------------------|
|-8-----------------10/11-10/11--7-------------------------------------------|

|-----------------------------------------------------------------------------|
|-----------------------------------------------------------------------------|
|-10-----------------12/13-12/13--12--------------13--10----------------------|
|-10-----------------12/13-12/13--12--------------13--10----------------------|
|-8------------------10/11-10/11--10--------------11--8-----------------------|
|-8-----------------10/11-10/11--10--------------11--8-----------------------|

Center Guitar 2x
|-----------------------------------------------------------------------------|
|-10-----------------12/13-12/13--9-------------------------------------------|
|-----------------------------------------------------------------------------|
|-7------------------9/109/10----6-------------------------------------------|
|-----------------------------------------------------------------------------|
|-----------------------------------------------------------------------------|

|-----------------------------------------------------------------------------|
|-10-----------------12/13-12/13--12--------------12--9-----------------------|
|-----------------------------------------------------------------------------|
|-7------------------9/10-9/10----9---------------10--6-----------------------|
|-----------------------------------------------------------------------------|
|-----------------------------------------------------------------------------|




Left Guitar
|-----------------------------------------------------------------------------|
|-----------------------------------------------------------------------------|
|-----------------------------------------------------------------------------|
|-9---9--------9---9--------9---9--------9---9--9/10--11/13-------------------|
|-7---7--------7---7--------7---7--------7---7-7/8---9/11--------------------|
|-7---7--------7---7--------7---7--------7---7--------------------------------|

Right Guitar
|-----------------------------------------------------------------------------|
|-----------------------------------------------------------------------------|
|-----------------------------------------------------------------------------|
|-2----2--------2---2--------2---2--------2---2--9/10--11/13------------------|
|-2----2--------2---2--------2---2--------2---2-7/8--9/11-------------------|
|-0----0--------0---0--------0---0--------0---0-------------------------------|

Left Guitar
|-----------------------------------------------------------------------------|
|-----------------------------------------------------------------------------|
|-----------------------------------------------------------------------------|
|-9---9--------9---9--------9---9--------9---9-13\12-10-----------------------|
|-7---7--------7---7--------7---7--------7---711\10-8------------------------|
|-7---7--------7---7--------7---7--------7---7--------------------------------|

Right Guitar
|-----------------------------------------------------------------------------|
|-----------------------------------------------------------------------------|
|-----------------------------------------------------------------------------|
|-2----2--------2---2--------2---2--------2---2-13\12-10----------------------|
|-2----2--------2---2--------2---2--------2---211\10-8-----------------------|
|-0----0--------0---0--------0---0--------0---0-------------------------------|

	Repeat above 1x




Both Guitars
|-----------------------------------------------------------------------------|
|-----------------------------------------------------------------------------|
|-----------------------------------------------------------------------------|
|-----------------------------------------------------------------------------|
|----------2222--------444455554444---------2222-------44445555444------------|
|-222222222----22222222-------------22222222----2222222-----------------------|

|-----------------------------------------------------------------------------|
|-----------------------------------------------------------------------------|
|-----------------------------------------------------------------------------|
|-----------------------------------------------------------------------------|
|---------1111---------444433334444--------1111--------444433334444-----------|
|-11111111-----1111111-------------11111111----11111111-----------------------|

|-----------------------------------------------------------------------------|
|-----------------------------------------------------------------------------|
|-----------------------------------------------------------------------------|
|-----------------------------------------------------------------------------|
|----------2222--------444455554444---------2222-------44445555444------------|
|-222222222----22222222-------------22222222----2222222-----------------------|

Left Guitar
|-----------------------------------------------------------------------------|
|-----------------------------------------------------------------------------|
|-----------------------------------------------------------------------------|
|-----------------------------------------------------------------------------|
|---------1111---------444433334444--------1111--------444433334444-----------|
|-11111111-----1111111-------------11111111----11111111-----------------------|

Right Guitar
|-----------------------------------------------------------------------------|
|-----------------------------------------------------------------------------|
|------------------------------------------------------666655556666-----------|
|-----------------------------------------------------------------------------|
|---------1111---------444433334444--------1111-------------------------------|
|-11111111-----1111111-------------11111111----11111111-----------------------|

	Repeat above 1x




Both Guitars 2x
|-----------------------------------------------------------------------------|
|-----------------------------------------------------------------------------|
|-----------------------------------------------------------------------------|
|-----------------------------------------------------------------------------|
|-3333333333333333----------------3333333333333555552222----------------------|
|-----------------0000000000000000----------------------000000000000000-------|

Left Guitar
|-----------------------------------------------------------------------------|
|-----------------------------------------------------------------------------|
|-----------------------------------------------------------------------------|
|-----------------------------------------------------------------------------|
|-3333333333333333----------------3333333355552222----------------------------|
|-----------------0000000000000000----------------000000000000000-------------|

Right Guitar
|-----------------------------------------------------------------------------|
|-----------------------------------------------------------------------------|
|-----------------------------------------------------------------------------|
|-555555555445542----------------5555555577779997-----------------------------|
|-----------------------------------------------------------------------------|
|-----------------000000000000000-----------------0000000000000000------------|

Left Guitar
|-----------------------------------------------------------------------------|
|-----------------------------------------------------------------------------|
|-----------------------------------------------------------------------------|
|-----------------------------------------------------------------------------|
|-3333333333333333----------------3333333355552222----------------------------|
|-----------------0000000000000000----------------00000000000000000000--------|

Right Guitar
|-----------------------------------------------------------------------------|
|-----------------------------------------------------------------------------|
|-----------------------------------------------------------------------------|
|-555555555445542----------------5555555577779997-----------------------------|
|-----------------------------------------------------------------------------|
|-----------------000000000000000-----------------000000000000000000000-------|

Left Guitar 3x with fade out
|-----------------------------------------------------------------------------|
|-----------------------------------------------------------------------------|
|-----------------------------------------------------------------------------|
|-----------------------------------------------------------------------------|
|-3333333333333333----------------3333333333333555552222----------------------|
|-----------------0000000000000000----------------------000000000000000-------|

Right Guitar 3x with fade out
|-----------------------------------------------------------------------------|
|-----------------------------------------------------------------------------|
|------------------------------------t-p--------------------------------------|
|-555555555445542-----5-4-5-7-5-4-5-4-5-4-2-----------------------------------|
|-----------------------------------------------------------------------------|
|-----------------0000--------------------------------------------------------|

|-----------------------------------------------------------------------------|
|-----------------------------------------------------------------------------|
|-----------------------------------------------------------------------------|
|-55555555777779995-----------------------------------------------------------|
|-----------------------------------------------------------------------------|
|------------------00000000000000000000---------------------------------------|

  Visit MetalTabs.com for more metal tablature