top separator

Home

Forum

What's New

Submit a Tab

FAQ

Links

Contact Us

Link to Us

MetalTabs.com logo

Bands

0-9

A

B

C

D

E

F

G

H

I

J

K

L

M

N

O

P

Q

R

S

T

U

V

W

X

Y

Z

Search

What

Where
 

I Hate Sally - "Wake Up Screaming" Bass Tab

Plain Text Version
More I Hate Sally Tabs

Hits: 2725
Updated: 2005-11-07 05:03:02

 

By:

sendpm.gif

email.gif

Important note
This tab is available online because we obtained explicit permission from I Hate Sally or their label.


#----------------------------------PLEASE NOTE---------------------------------#
#This file is the author's own work and represents their interpretation of the #
#song. You may only use this file for private study, scholarship, or research. #
#Unless specified otherwise, this is NOT an official tab from the band members.#
#------------------------------------------------------------------------------#

  Visit MetalTabs.com for more metal tablature
  
Band:  I Hate Sally
Album: Sickness Of The Ages
Song:  Wake Up Screaming

Copyright (c)  Blackula Records 2004
Version 1.0 - Oct. 20/05

Transcribed By: Aaron Lasovski
Email:          Aaron.lasovski@gmail.com


Tuning E B F# B


intro
|---7-------------------------------3------------5--------------------|
|---7-------------------------------3------------5--------------------|
|---5-------------------------------1------------3--------------------|
|---0--00--000-000-000-000-000-000----00-000-000--00-000-000----------|

verse
|----7-------------------------------3--------------5--------------------|
|----7-------------------------------3--------------5--------------------|
|----5-------------------------------1-11-111-111---3-33- 333-333--------|
|----0--00--000-000-000-000-000-000--------------------------------------|

pre chorus

|------------------------------------------------------------------------|
|------------------------------------------------------------------------|
|------------------------------------------------------------------------|
|----0 --00--000-000-0-0-1-0-1-0 -00-000-000-1-0-1-4-3-1-----------------|

chorus
|------3---3--------3---3--------5--------7---7--------9---9--------10---|
|----3---3---3----3---3---3----5---5----7---7---7----9---9---9---10----10|
|--1------------1------------3--------5------------7-----------8---------|
|------------------------------------------------------------------------|

Breakdown highly improvised but works on this rhythm
|------------------------------------------------------------------------|
|------------------------------------------------------------------------|
|------------------------------------------------------------------------|
|-0-0---00--------0-0--00------------------------------------------------|

  Visit MetalTabs.com for more metal tablature

bottom separator

Contact Us | Privacy Policy | Disclaimer | Legal Notice
Copyright © 2001-2014 MetalTabs.com. All Rights Reserved.