top separator

Home

Forum

What's New

Submit a Tab

FAQ

Links

Contact Us

Link to Us

MetalTabs.com logo

Bands

0-9

A

B

C

D

E

F

G

H

I

J

K

L

M

N

O

P

Q

R

S

T

U

V

W

X

Y

Z

Search

What

Where
 

Burzum - "Black spell of Destruction" Guitar Tab

Plain Text Version
More Burzum Tabs

Hits: 4619
Rated: 3.60 out of 5 (5 votes)
Updated: 2005-11-07 04:33:14

 

By:

sendpm.gif

email.gif

Important note
This tab is available online because we obtained explicit permission from Burzum or their label.


#----------------------------------PLEASE NOTE---------------------------------#
#This file is the author's own work and represents their interpretation of the #
#song. You may only use this file for private study, scholarship, or research. #
#Unless specified otherwise, this is NOT an official tab from the band members.#
#------------------------------------------------------------------------------#

  Visit MetalTabs.com for more metal tablature
  
Band: Burzum
Album: Burzum
Song: Black Spell Of Destruction

Tuning - Standard (EADGBE)

e||------------------------|--------------3-------|-----------------------|
B||------------------------|-----------------3----|-----------------------|
G||*-----------------------|----------------------|-------0---------------|
D||*--2----2---------------|--5----5--------------|--2----2---------------|
A||---2----2------2--2--2--|--5----5--------------|--2----2------2--2--2--|
E||---0----0------0--0--0--|--3----3--------------|--0----0------0--0--0--|



-------------------------||------------------------|--------------3-------|
-------------------------||------------------------|-----------------3----|
------------------------*||*-----------------------|----------------------|
--5----5-----4----4-----*||*--2----2---------------|--5----5--------------|
--5-------5--4-------4---||---2----2------2--2--2--|--5----5--------------|
--3----------2-----------||---0----0------0--0--0--|--3----3--------------|



-----------------------|-------------------------||-------------------|
-----------------------|-------------------------||-------------------|
-------0---------------|------------------------*||-------------------|
--2----2---------------|--5----5-----4----4-----*||-------------------|
--2----2------2--2--2--|--5-------5--4-------4---||--2----------------|
--0----0------0--0--0--|--3----------2-----------||--0----------------|



------------------|--------------------------|-------------------------|
------------------|--------------------0-----|--------0----------0-----|
------------------|-----4-----4-----4-----4--|-----4----------4-----4--|
------------------|--2-----2-----2-----------|--2----------2-----------|
------------------|--------------------------|-------------------------|
------------------|--------------------------|-------------------------|



--------------------------|--------------------------|
--------0-----------0-----|--------0-----------0-----|
-----3-----3-----3-----3--|-----3-----3-----3-----3--|
--1-----------1-----------|--1-----------1-----------|
--------------------------|--------------------------|
--------------------------|--------------------------|



--------------------------|--------------------------|
--------0-----------0-----|--------0-----------0-----|
-----4-----4-----4-----4--|-----4-----4-----4-----4--|
--2-----------2-----------|--2-----------2-----------|
--------------------------|--------------------------|
--------------------------|--------------------------|



--------------------------|--------------------------|
--------0-----------0-----|--------0-----------0-----|
-----3-----3-----3-----3--|-----3-----3-----3-----3--|
--1-----------1-----------|--1-----------1-----------|
--------------------------|--------------------------|
--------------------------|--------------------------|



|---------------------------|--------------------------|
|---------0-----------0-----|--------0-----------0-----|
|*-----4-----4-----4-----4--|-----4-----4-----4-----4--|
|*--2-----------2-----------|--2-----------2-----------|
|---------------------------|--------------------------|
|---------------------------|--------------------------|



--------------------------|---------------------------||
--------0-----------0-----|--------0-----------0------||
-----3-----3-----3-----3--|-----3-----3-----3-----3--*||
--1-----------1-----------|--1-----------1-----------*||
--------------------------|---------------------------||
--------------------------|---------------------------||



--------------------------|--------------------------|
--------0-----------0-----|--------0-----------0-----|
-----4-----4-----4-----4--|-----4-----4-----4-----4--|
--2-----------2-----------|--2-----------2-----------|
--------------------------|--------------------------|
--------------------------|--------------------------|



--------------------------|--------------------------|
--------0-----------0-----|--------0-----------0-----|
-----3-----3-----3-----3--|-----3-----3-----3-----3--|
--1-----------1-----------|--1-----------1-----------|
--------------------------|--------------------------|
--------------------------|--------------------------|



--------------------------|--------------------------|
--------0-----------0-----|--------0-----------0-----|
-----4-----4-----4-----4--|-----4-----4-----4-----4--|
--2-----------2-----------|--2-----------2-----------|
--------------------------|--------------------------|
--------------------------|--------------------------|



--------------------------|--------------------------|
--------0-----------0-----|--------0-----------0-----|
-----3-----3-----3-----3--|-----3-----3-----3-----3--|
--1-----------1-----------|--1-----------1-----------|
--------------------------|--------------------------|
--------------------------|--------------------------|



--------------------------|--------------------------|
--------0-----------0-----|--------0-----------0-----|
-----4-----4-----4-----4--|-----4-----4-----4-----4--|
--2-----------2-----------|--2-----------2-----------|
--------------------------|--------------------------|
--------------------------|--------------------------|



--------------------------|--------------------------|
--------0-----------0-----|--------0-----------0-----|
-----3-----3-----3-----3--|-----3-----3-----3-----3--|
--1-----------1-----------|--1-----------1-----------|
--------------------------|--------------------------|
--------------------------|--------------------------|



--------------------------|--------------------------|
--------0-----------0-----|--------0-----------0-----|
-----4-----4-----4-----4--|-----4-----4-----4-----4--|
--2-----------2-----------|--2-----------2-----------|
--------------------------|--------------------------|
--------------------------|--------------------------|



--------------------------|--------------------------|
--------0-----------0-----|--------0-----------0-----|
-----3-----3-----3-----3--|-----3-----3-----3-----3--|
--1-----------1-----------|--1-----------1-----------|
--------------------------|--------------------------|
--------------------------|--------------------------|



|---------------------------|-------------------------|
|---------------------------|-------------------------|
|*--------------------------|-------------------------|
|*--------------------------|-------------------------|
|---2--2-2-2--2----4--4h-6--|--6--6-6-6--6----6----2--|
|---0--0-0-0--0----2--2h-4--|--4--4-4-4--4----4----0--|



--------------------------|---------------------------||
--------------------------|---------------------------||
--------------------------|--------------------------*||
--------------------------|--------------------------*||
--2--2-2-2--2----4--4h-6--|--6--6-6-6--6----6--6/-7---||
--0--0-0-0--0----2--2h-4--|--4--4-4-4--4----4--4/-5---||



---------------------------|--------------------------|
---------0-----------0-----|--------0-----------0-----|
*-----4-----4-----4-----4--|-----4-----4-----4-----4--|
*--2-----------2-----------|--2-----------2-----------|
---------------------------|--------------------------|
---------------------------|--------------------------|



--------------------------|---------------------------||
--------0-----------0-----|--------0-----------0------||
-----3-----3-----3-----3--|-----3-----3-----3-----3--*||
--1-----------1-----------|--1-----------1-----------*||
--------------------------|---------------------------||
--------------------------|---------------------------||



--------------------------|--------------------------|
--------0-----------0-----|--------0-----------0-----|
-----4-----4-----4-----4--|-----4-----4-----4-----4--|
--2-----------2-----------|--2-----------2-----------|
--------------------------|--------------------------|
--------------------------|--------------------------|



--------------------------|--------------------------|
--------0-----------0-----|--------0-----------0-----|
-----3-----3-----3-----3--|-----3-----3-----3-----3--|
--1-----------1-----------|--1-----------1-----------|
--------------------------|--------------------------|
--------------------------|--------------------------|



--------------------------|--------------------------|
--------0-----------0-----|--------0-----------0-----|
-----4-----4-----4-----4--|-----4-----4-----4-----4--|
--2-----------2-----------|--2-----------2-----------|
--------------------------|--------------------------|
--------------------------|--------------------------|



--------------------------|--------------------------|
--------0-----------0-----|--------0-----------0-----|
-----3-----3-----3-----3--|-----3-----3-----3-----3--|
--1-----------1-----------|--1-----------1-----------|
--------------------------|--------------------------|
--------------------------|--------------------------|



--------------------------|--------------------------|
--------0-----------0-----|--------0-----------0-----|
-----4-----4-----4-----4--|-----4-----4-----4-----4--|
--2-----------2-----------|--2-----------2-----------|
--------------------------|--------------------------|
--------------------------|--------------------------|



--------------------------|--------------------------|
--------0-----------0-----|--------0-----------0-----|
-----3-----3-----3-----3--|-----3-----3-----3-----3--|
--1-----------1-----------|--1-----------1-----------|
--------------------------|--------------------------|
--------------------------|--------------------------|



--------------------------|--------------------------|
--------0-----------0-----|--------0-----------0-----|
-----4-----4-----4-----4--|-----4-----4-----4-----4--|
--2-----------2-----------|--2-----------2-----------|
--------------------------|--------------------------|
--------------------------|--------------------------|



--------------------------|--------------------------|
--------0-----------0-----|--------0-----------0-----|
-----3-----3-----3-----3--|-----3-----3-----3-----3--|
--1-----------1-----------|--1-----------1-----------|
--------------------------|--------------------------|
--------------------------|--------------------------|



--------------------------|-------------------------|--------------------------|
--------------------------|-------------------------|--------------------------|
--------------------------|-------------------------|--------------------------|
--------------------------|-------------------------|--------------------------|
--2--2-2-2--2----4--4h-6--|--6--6-6-6--6----6----2--|--2--2-2-2--2----4--4h-6--|
--0--0-0-0--0----2--2h-4--|--4--4-4-4--4----4----0--|--0--0-0-0--0----2--2h-4--|



--------------------------|--------------------------|-------------------------|
--------------------------|--------------------------|-------------------------|
--------------------------|--------------------------|-------------------------|
--------------------------|--------------------------|-------------------------|
--6--6-6-6--6----6--6/-7--|--2--2-2-2--2----4--4h-6--|--6--6-6-6--6----6----2--|
--4--4-4-4--4----4--4/-5--|--0--0-0-0--0----2--2h-4--|--4--4-4-4--4----4----0--|



--------------------------|--------------------------|
--------------------------|--------------------------|
--------------------------|--------------------------|
--------------------------|--------------------------|
--2--2-2-2--2----4--4h-6--|--6--6-6-6--6----6--6/-7--|
--0--0-0-0--0----2--2h-4--|--4--4-4-4--4----4--4/-5--|



|--------------------------|-------------------------|-------------------------|
|--------------------------|-----------0-------------|--------------------1----|
|*-----------0-------------|--------------0----------|-----------------1-------|
|*--------2-----2----------|--------2--------2-------|--------3-----3----------|
|------2-----------2-------|-----2--------------2----|-----3-----3-------------|
|---0-----------------0----|--0----------------------|--1----------------------|



--------------------1-----||-------------------------|-------------------------|
-----------------1--------||-------------------------|-----------0-------------|
--------1-----1----------*||-----------0-------------|--------------0----------|
-----3-----3-------------*||--------2-----2----------|--------2--------2-------|
--3-----------------------||-----2-----------2-------|-----2--------------2----|
--------------------------||--0-----------------0----|--0----------------------|



-------------------------|--------------------1----|-------------------------|
--------------------1----|-----------------1-------|-------------------------|
-----------------1-------|--------1-----1----------|-----------0-------------|
--------3-----3----------|-----3-----3-------------|--------2-----2----------|
-----3-----3-------------|--3----------------------|-----2-----------2-------|
--1----------------------|-------------------------|--0-----------------0----|



-------------------------|-------------------------|--------------------1----|
-----------0-------------|--------------------1----|-----------------1-------|
--------------0----------|-----------------1-------|--------1-----1----------|
--------2--------2-------|--------3-----3----------|-----3-----3-------------|
-----2--------------2----|-----3-----3-------------|--3----------------------|
--0----------------------|--1----------------------|-------------------------|



-------------------------|-------------------------|-------------------------|
-------------------------|-----------0-------------|--------------------1----|
-----------0-------------|--------------0----------|-----------------1-------|
--------2-----2----------|--------2--------2-------|--------3-----3----------|
-----2-----------2-------|-----2--------------2----|-----3-----3-------------|
--0-----------------0----|--0----------------------|--1----------------------|



--------------------1----|-------------------------|-------------------------|
-----------------1-------|-------------------------|-----------0-------------|
--------1-----1----------|-----------0-------------|--------------0----------|
-----3-----3-------------|--------2-----2----------|--------2--------2-------|
--3----------------------|-----2-----------2-------|-----2--------------2----|
-------------------------|--0-----------------0----|--0----------------------|



-------------------------|--------------------1----||--------------------------|
--------------------1----|-----------------1-------||--------------------------|
-----------------1-------|--------1-----1----------||*-----------0-------------|
--------3-----3----------|-----3-----3-------------||*--------2-----2----------|
-----3-----3-------------|--3----------------------||------2-----------2-------|
--1----------------------|-------------------------||---0-----------------0----|



-------------------------|-------------------------|--------------------1----|
-----------0-------------|--------------------1----|-----------------1-------|
--------------0----------|-----------------1-------|--------1-----1----------|
--------2--------2-------|--------3-----3----------|-----3-----3-------------|
-----2--------------2----|-----3-----3-------------|--3----------------------|
--0----------------------|--1----------------------|-------------------------|



-------------------------|-------------------------|-------------------------|
-------------------------|-----------0-------------|--------------------1----|
-----------0-------------|--------------0----------|-----------------1-------|
--------2-----2----------|--------2--------2-------|--------3-----3----------|
-----2-----------2-------|-----2--------------2----|-----3-----3-------------|
--0-----------------0----|--0----------------------|--1----------------------|



--------------------1----||--------------------------|-------------------------|
-----------------1-------||--------------------------|-----------0-------------|
--------1-----1----------||*-----------0-------------|--------------0----------|
-----3-----3-------------||*--------2-----2----------|--------2--------2-------|
--3----------------------||------2-----------2-------|-----2--------------2----|
-------------------------||---0-----------------0----|--0----------------------|



-------------------------|--------------------1-----||--------------------|
--------------------1----|-----------------1--------||-----------1--------|
-----------------1-------|--------1-----1----------*||--------------------|
--------3-----3----------|-----3-----3-------------*||--2-----------------|
-----3-----3-------------|--3-----------------------||--------------------|
--1----------------------|--------------------------||--------------------|



---------------------|--------------------|---------------------|
--0--------2----1----|-----------1--------|--0--------2----1----|
---------------------|--------------------|---------------------|
---------------------|--2-----------------|---------------------|
---------------------|--------------------|---------------------|
---------------------|--------------------|---------------------|



--------------------|---------------------|--------------------|
-----------1--------|--0------------------|-----------1--------|
--------------------|-----------1----0----|--------------------|
--3-----------------|---------------------|--3-----------------|
--------------------|---------------------|--------------------|
--------------------|---------------------|--------------------|



---------------------|--------------------|---------------------|
--0------------------|-----------1--------|--0--------2----1----|
-----------1----0----|--------------------|---------------------|
---------------------|--2-----------------|---------------------|
---------------------|--------------------|---------------------|
---------------------|--------------------|---------------------|



--------------------|---------------------|--------------------|
-----------1--------|--0--------2----1----|-----------1--------|
--------------------|---------------------|--------------------|
--2-----------------|---------------------|--3-----------------|
--------------------|---------------------|--------------------|
--------------------|---------------------|--------------------|



---------------------|--------------------|---------------------|
--0------------------|-----------1--------|--0------------------|
-----------1----0----|--------------------|-----------1----0----|
---------------------|--3-----------------|---------------------|
---------------------|--------------------|---------------------|
---------------------|--------------------|---------------------|



--------------------|---------------------|--------------------|
-----------1--------|--0--------2----1----|-----------1--------|
--------------------|---------------------|--------------------|
--2-----------------|---------------------|--2-----------------|
--------------------|---------------------|--------------------|
--------------------|---------------------|--------------------|



---------------------|--------------------|---------------------|
--0--------2----1----|-----------1--------|--0------------------|
---------------------|--------------------|-----------1----0----|
---------------------|--3-----------------|---------------------|
---------------------|--------------------|---------------------|
---------------------|--------------------|---------------------|



--------------------|---------------------|--------------------|
-----------1--------|--0------------------|-----------1--------|
--------------------|-----------1----0----|--------------------|
--3-----------------|---------------------|--2-----------------|
--------------------|---------------------|--------------------|
--------------------|---------------------|--------------------|



---------------------|--------------------|---------------------|
--0--------2----1----|-----------1--------|--0--------2----1----|
---------------------|--------------------|---------------------|
---------------------|--2-----------------|---------------------|
---------------------|--------------------|---------------------|
---------------------|--------------------|---------------------|



--------------------|---------------------|--------------------|
-----------1--------|--0------------------|-----------1--------|
--------------------|-----------1----0----|--------------------|
--3-----------------|---------------------|--3-----------------|
--------------------|---------------------|--------------------|
--------------------|---------------------|--------------------|



---------------------|-------------------|------------------|
--0------------------|-------------------|------------------|
-----------1----0----|-------------------|------------------|
---------------------|--2----------------|------------------|
---------------------|-------------------|------------------|
---------------------|-------------------|------------------|



-------------------||
-------------------||
--0----------------||
--2----------------||
-------------------||
-------------------||

If you have any corrections please mail me at demiigod@hotmail.com

  Visit MetalTabs.com for more metal tablature

bottom separator

Contact Us | Privacy Policy | Disclaimer | Legal Notice
Copyright © 2001-2014 MetalTabs.com. All Rights Reserved.