top separator

Home

Forum

What's New

Submit a Tab

FAQ

Links

Contact Us

Link to Us

MuSpy.com

MetalTabs.com logo

Bands

0-9

A

B

C

D

E

F

G

H

I

J

K

L

M

N

O

P

Q

R

S

T

U

V

W

X

Y

Z

Search

What

Where
 

Toxik - "47 Seconds of Sanity / Count Your Blessings" Guitar Tab

Plain Text Version
More Toxik Tabs

Hits: 4776
Rated: 5.00 out of 5 (1 vote)
Updated: 2007-01-02 21:28:54

 

By:

MetalThrashingMad

sendpm.gif

email.gif

Co-authored by:

Dahmers Fridge

sendpm.gif

email.gif

Important note
This tab is available online because we obtained explicit permission from Toxik or their label.


#----------------------------------PLEASE NOTE---------------------------------#
#This file is the author's own work and represents their interpretation of the #
#song. You may only use this file for private study, scholarship, or research. #
#Unless specified otherwise, this is NOT an official tab from the band members.#
#------------------------------------------------------------------------------#

  Visit MetalTabs.com for more metal tablature
  
47 SECONDS OF SANITY / COUNT YOUR BLESSINGS
                              As recorded by Toxik
                       (From the 1988 Album WORLD CIRCUS)
                     Copyright (c) 1988 Rodarunner Records


Arranged by Toxik
Transcribed by Steve Elvidge and Steve Rubaszek
Version - 1.3 - March 9, 2006


Big thanks to Steve E. as he tabbed the whole intro, something that I could not
have done myself.


Gtr I (E A D G B E) - 'Acoustic I'
Gtr II (E A D G B E) - 'Acoustic II'
Gtr III (E A D G B E) - 'Lead'
Gtr IV (E A D G B E) - 'Clean'
Gtr V (E A D G B E) - 'Rhythm I'
Gtr VI (E A D G B E) - 'Rhythm II'

 47 Seconds of Sanity
  Q=140
 4/4
  Gtr I
|-3-------3-------|--0--------0-------|-1----1-------|-------0---1---|
|---1-------1-----|-----1-------1-----|-0------0-----|-3-------3-----|
|-----2-------2---|-------2-------2---|-----------2--|---------------|
|-------2-------2-|---------2-------2-|--------------|---------------|
|-----------------|-------------------|--------------|-2-------------|
|-----------------|-------------------|--------------|---------------|
|
| Gtr II
|-----------------|-------------------|--------------|---------------|
|-----------------|-------------------|--------------|-----------5---|
|-------------2---|---------------5---|-4--------/7--|-7----/7-------|
|---------------2-|-(2)---------------|--------------|---------------|
|-----------------|-------------------|--------------|---------------|
|-----------------|-------------------|--------------|---------------|


|------------------|------------|-1-----3-1-0--|
|------------------|-----1-0----|--------------|
|-----2------------|---2--------|--------------|
|-3----------------|-2----------|--------------|
|--------2-----0---|------------|--------------|
|------------------|------------|--------------|
|
|------------------|------------|--------------|
|-6h8----8p6S5---6-|-5S3--------|--------------|
|------------------|-----5-4----|-4---5--------|
|------------------|------------|-------7------|
|------------------|------------|--------------|
|------------------|------------|--------------|


|----------------|-----------------|
|----------------|-----1-------1---|
|-1--------------|---1-------2---1-|
|----------------|-2-------2-------|
|-2------------3-|-----------------|
|----------------|-----------------|
|
|--------------0-|-1-0-1-3-5-7-8-7-|
|--------0-1-3---|-----------------|
|-1--1-2---------|-----------------|
|----------------|-----------------|
|----------------|-----------------|
|----------------|-----------------|


|--------0-------------|--------0-------|
|--------3-------------|----3------0----|
|----------------------|--------------0-|
|----------------------|----------------|
|---3------------------|-2--------------|
|----------------------|----------------|
|
|-7h8----7-8-10-7-8----|-7--------------|
|-------------------10-|----8-----(8)-8-|
|----------------------|----------------|
|----------------------|----------------|
|----------------------|----------------|
|----------------------|----------------|


|--------------------------0---|---------5-3-0--|
|----------3---1-------------0-|---1---3--------|
|-2----2-----------2-----------|-2---2----------|
|-0----------------------------|----------------|
|----------------------0-------|----------------|
|------------------------------|----------------|
|
|------------------------------|----------------|
|-8h10-6h8-5h6-3h5-1h3-0h1p0---|-------------3--|
|------------------------------|-2--------------|
|------------------------------|----------------|
|------------------------------|----------------|
|------------------------------|----------------|


|-----------------3---1------|-(1)------------------|
|---------3------------------|----------------------|
|-----2----------------------|-----------1---1--1-1-|
|-0--------------------------|-----------2---2--2-2-|
|----------------------------|-----------2---2--2-2-|
|----------------------------|-------0--------------|
|
|                                          ~~~~
|----------------------------|----------------------|
|-------------------3-1---1--|----------------------|
|---------2-4-5-2-4-----4----|--5--4-5p4-5----------|
|---2-3-5--------------------|-------------3-3--2---|
|-5--------------------------|----------------------|
|----------------------------|----------------------|


                           H.=H
|-----------------|--------------0-|-----0-----<5>-<5>-(<5>)----|
|-----------------|----------------|--2----<5>------------------|
|-----2-------0---|-----0------2---|----------------------------|
|---2---2---0---0-|---2------2-----|----------------------------|
|-0-------2-------|-3------4-------|----------------------------|
|-----------------|----------------|----------------------------|
|
|-----------------|--------0-------|-(0)-------<5>-----(<5>)----|
|-1-------3-------|-5------5-------|-(5)---<5>------------------|
|-----------------|----------------|----------------------------|
|-----------------|----------------|----------------------------|
|-0-------2-------|-3--------------|----------------------------|
|-----------------|----------------|----------------------------|


  Q=80
 12/8
:-1---------------4---------------------------------------------3-0-|
:-----3---1---0---------------0-----1-------------------------------|
:-----------------------------------------2-------------------------|
:-------------------------------------------------------------------|
:-----------------------------------------------0-------------------|
:-------------------------------------------------------------------|
|
:-----------1-----0-1-3p1---0---------------------------------------|
:---0---1-------3---------3---3-1-0-3-1-0---0-----------------------|
:-2---------------------------------------2---2-0---2-0-------------|
:-0-----------------------------------------------3-----3-2-3-2-0---|
:-----------------------------------------------------------------3-|
:-------------------------------------------------------------------|


        Q=100
 4/4
|-------------------0---0-(0)--|
|-3-(3)---------------3--------|
|---------1--------------------|
|---------2--------------------|
|---------2--------------------|
|---------0--------------------|
|
|------------------------------|
|------------------------------|
|------------------------------|
|------------------------------|
|-3-----2-----0-2-3---2--------|
|-----------4------------------|


  H.=H                          Q
  Gtr I
|-0-----------------------------|
|-----3-------------------------|
|-----------4-----(4)-----------|
|-------------------------------|
|-------------------------------|
|-------------------------------|
|
| Gtr I
|-----------0----------------0--|
|---1-----------------1---------|
|-2-------2--------2------2-(2)-|
|-------------------------------|
|-------------------------------|
|-------------------------------|
|
| Gtr II
|-------------------------------|
|---------------------1-3-------|
|-------------0-2--4------------|
|-------0-2-3-------------------|
|-0-2-3-------------------------|
|-------------------------------|


 =90
 9/4
|-------------------------------------------------------------------------||
|-------------------------------------------------------------------------||
|-------------------------------------------------------------------------||
|-------------------------------------------------------------------------||
|-------------------------------------------------------------------------||
|-------------------------------------------------------------------------||
|
|-------------------------------------------------------------------------||
|---------1-----------------------(1)--------1----------------------------||
|-(2)-----2-----------------------(2)--------2----------------------------||
|---------2-----------------------(2)--------2----------------------------||
|---------0-----------------------(0)--------0----------------------------||
|-------------------------------------------------------------------0-----||
|
|-12--13-10-12-8-10-7-8p7-------------------------------------------------||
|-------------------------10-9-10--9--------------------------------------||
|-------------------------------------9-7-9S10-7-9-5S4-5-7p5S4-2p1-(1)----||
|-------------------------------------------------------------------------||
|-------------------------------------------------------------------------||
|-------------------------------------------------------------------------||


 Intro
  Q=140
 4/4
  Gtr IV
|------------------|-----------------|--------------------|-------------------|
|----------5-------|---------5-------|-----6p5------------|-------------------|
|------5-------5---|-----5-------5---|-----------10---9---|-------------------|
|-^7-7---7---7---7-|---7---7---7---7-|---7-----7----------|-12---10---9---12--|
|-^0---------------|-8---------------|-7------------7---7-|----7----7---7-----|
|------------------|-----------------|--------------------|-------------------|


|-----------------|-----------------|--------------------|----------8---7\---|
|--------^5-5-----|---------5-------|-----6-5------------|-10---9------------|
|------5-^5-----5-|-----5-------5---|-----------10---9---|-------------------|
|-7--7---^7---7---|---7---7---7---7-|---7-----7----------|-------------------|
|-0---------------|-8---------------|-7------------7---7-|----7---7---7------|
|-----------------|-----------------|--------------------|-------------------|


|----------------|------------------|-----------------|------^0----|
|------0---0-----|---------^5-5-----|-----------------|------^1----|
|--------7-----7-|---7---7-^5---5---|-------5-7-7-5\--|------^2----|
|----5-------5---|-----5---^7-----7-|---5-------------|------------|
|-3--------------|-3----------------|-3---3-----------|------------|
|----------------|------------------|-----------------|-1----------|


  Gtr IV
|-----------------|----------------|
|-----------------|-----6-6-----6--|
|---5---5-7-5-4---|---5-------5----|
|-7---7---------7-|-3-------2------|
|-0---------------|----------------|
|-----------------|----------------|
|
| Gtrs V, VI
|-----------------|----------------|
|-----------------|----------------|
|-----------------|----------------|
|-----------------|----------------|
|-----------------|----------------|
|-----------------|----------------|


  Q=160
|-----------(5)-------|-([17])--------------||
|---------------------|---------------------||
|---------------------|---------------------||
|---------------------|---------------------||
|-(0)-----------------|---------------------||
|---------------------|---------------------||
|
|  PM----------------------------------|
|---------------------|---------------------||
|---------------------|---------------------||
|---------------------|---------------------||
|--2--2-2-2--2--2-2-2-|----2---2-2-2-2-2-2--||
|--0--0-0-0--0--0-0-0-|----0---0-0-0-0-0-0--||
|---------------------|---------------------||


 Solo
  Gtrs V, VI
     PM|    PM|      PM|    PM|
|---------------|---------------|
|--------1------|---------------|
|-2------2------|--------2------|
|-2------2------|-3------3------|
|-0--0-0-0--0-0-|-3------3------|
|---------------|-1--1-1-1--1-1-|


                                          PM|    PM|
|-------------------|----------------|---------------|
|-------------------|----------------|--------1------|
|--------[10]--[9]--|-10--9--10--12--|-2------2------|
|-2-----------------|-10--9---7---9--|-2------2------|
|-2-----------------|--8--7---8--10--|-0--0-0-0--0-0-|
|-0--0-0------------|----------------|---------------|


     PM|    PM|      PM---------------------------|
|---------------|----------------|------------------|
|---------------|----------------|-----10-----------|
|--------2------|--------9-7-----|--------9---------|
|-3------3------|------------9-7-|---9--------------|
|-3------3------|-2--------------|-7----------------|
|-1--1-1-1--1-1-|-0--0-0---------|----------5-3-1-0-|


  ~                           ~            ~
|------------|--------------|------------|-------------|
|------------|--------------|------------|-------------|
|------------|--------------|------------|-------------|
|------------|--------------|------------|-------------|
|-3----3-5-3-|-[2]----2-3-2-|------------|-------------|
|------------|--------------|-5----3-5-3-|-1----0-1-0--|


     PM---------------------------|
|----------------|------------------|
|----------------|-----10-----------|
|--------9-7-----|--------9---------|
|-7----------9-7-|---9--------------|
|-7--------------|-7----------------|
|-5--5-5---------|----------5-3-1-0-|


|----------|------------|--------|
|----------|------------|--------|
|----------|------------|--------|
|-7--------|-(7)--------|-(7)----|
|-7--------|-(7)--------|--------|
|-5--------|-(5)--------|-(5)----|


 Verse
  Q=235
  Gtr V
|-------------------|-------------------|
|-------------------|-------------------|
|--------------12\--|---9-----7-7-10-10-|
|-14-14--12--x-10\--|---7-----5-5--8--8-|
|-12-12--10--x------|-0---0-0-----------|
|-------------------|-------------------|
|
| Gtr VI
|-------------------|-------------------|
|-------------------|-------------------|
|-------------------|-------------------|
|-------------------|-------------------|
|-------------------|-------------------|
|-------------------|-------------------|


                         \1/   \1/   \1/
|----------------|------------------------|
|----------------|------------------------|
|-9-9---------8--|-(8)--(8)---(8)---(8)---|
|-7-7---7-7---6--|-(6)--(6)---(6)---(6)---|
|-----0-6-6-0----|------------------------|
|----------------|------------------------|
|
|----------------|------------------------|
|----------------|------------------------|
|----------------|------------------------|
|----------------|------------------------|
|----------------|------------------------|
|----------------|------------------------|


|-------------------|-------------------|
|-------------------|-------------------|
|--------------12\--|---9-9---7-7-10-10-|
|-14-14--12--x-10\--|---7-7---5-5--8--8-|
|-12-12--10--x------|-0-----0-----------|
|-------------------|-------------------|
|
|-------------------|-------------------|
|-------------------|-------------------|
|-------------------|-------------------|
|-14-14-------------|-------------------|
|-12-12-------------|-------------------|
|-------------------|-------------------|


|----------------|-----------------------|
|----------------|-----------------------|
|-9-9---------8--|-------6-7-9-7-6-------|
|-7-7---7-7---6--|-6-7-9-----------7-6---|
|-----0-6-6-0----|-----------------------|
|----------------|-----------------------|
|
|----------------|-----------------------|
|----------------|-----------------------|
|----------------|-------6-7-9-7-6-------|
|----------------|-6-7-9-----------7-6---|
|----------------|-----------------------|
|----------------|-----------------------|


  Gtrs V, VI
                                                            \1/   \1/   \1/
|-------------------|------------------|------------|------------------------|
|-------------------|------------------|------------|------------------------|
|--------------12\--|---9-----7---10---|-9-------8--|-(8)--(8)---(8)---(8)---|
|-14-14--12--x-10\--|---7-----5----8---|-7---7---6--|-(6)--(6)---(6)---(6)---|
|-12-12--10--x------|-0---0-0---0----0-|-----5------|------------------------|
|-------------------|------------------|------------|------------------------|


|-------------------|------------------|------------|-----------------------||
|-------------------|------------------|------------|-----------------------||
|--------------12\--|---9-----7---10---|-9-------8--|-------6-7-9-7-6-------||
|-14-14--12--x-10\--|---7-----5----8---|-7---7---6--|-6-7-9-----------7-6---||
|-12-12--10--x------|-0---0-0---0----0-|-----5------|-----------------------||
|-------------------|------------------|------------|-----------------------||


 Chorus
 6/4
  Gtr V
|-----------------------------|--------------------------|
|-----------------------------|--------------------------|
|-----------------------------|--------------------------|
|-----------------------------|--------------------------|
|-----[8]--[7]----------------|-----[8]--[7]--8-7--------|
|-0-0-----------0-0-[8]--[7]--|-0-0---------------8-7-8--|
|
| Gtr VI
|-----------------------------|--------------------------|
|-----------------------------|--------------------------|
|-----------------------------|--------------------------|
|-----------------------------|--------------------------|
|-----[8]--[7]----------------|-----[8]--[7]--8-7--------|
|-0-0-----------0-0-[8]--[7]--|-0-0---------------8-7-8--|


|-----------------------------|-------------------------------|
|-----------------------------|-------------------------------|
|-----------------------------|-------------------------------|
|-----10----9-----------------|-----10----9---10-9------------|
|-----[8]--[7]------10----9---|-----[8]--[7]---8-7-10S9S10----|
|-0-0-----------0-0-[8]--[7]--|-0-0-----------------8S7S=8----|
|
|-----------------------------|-------------------------------|
|-----------------------------|-------------------------------|
|-----------------------------|-------------------------------|
|-----------------------------|-------------------------------|
|-----[8]--[7]----------------|-----[8]--[7]---8-7------10----|
|-0-0-----------0-0-[8]--[7]--|-0-0-----------------8-7--8----|


|-------------------------------|------------------------------|
|-------------------------------|------------------------------|
|-----[10]--[9]-----------------|-----[10]--[9]--10-9----------|
|--------------------[10]--[9]--|---------------------10-9-10--|
|-------------------------------|------------------------------|
|-0-0------------0-0------------|-0-0--------------------------|
|
|-------------------------------|------------------------------|
|-------------------------------|------------------------------|
|-------------------------------|------------------------------|
|-------------------------------|------------------------------|
|-------8----7------------------|-------8----7----8-7----------|
|-0-0------------0-0---8----7---|-0-0------------------8-7--8--|


|-------------------------------|---------------------------------|
|-------------------------------|---------------------------------|
|-----[10]--[9]-----------------|-----[10]--[9]--10-9-------------|
|--------------------[10]--[9]--|---------------------10-9-10\----|
|-------------------------------|---------------------------------|
|-0-0------------0-0------------|-0-0-----------------------------|
|
|-------------------------------|---------------------------------|
|-------------------------------|---------------------------------|
|-------------------------------|---------------------------------|
|-------------------------------|---------------------------------|
|-------8----7------------------|-------8----7----8-7-------------|
|-0-0------------0-0---8----7---|-0-0------------------8-7--8\----|


 Verse
 4/4
  Gtrs V, VI
                                                             \1/   \1/   \1/
|--------------------|------------------|------------|------------------------|
|--------------------|------------------|------------|------------------------|
|---------------12\--|---9-----7---10---|-9-------8--|-(8)--(8)---(8)---(8)---|
|-14-14--12---x-10\--|---7-----5----8---|-7---7---6--|-(6)--(6)---(6)---(6)---|
|-12-12--10---x------|-0---0-0---0----0-|-----5------|------------------------|
|--------------------|------------------|------------|------------------------|


|-------------------|------------------|------------|-----------------------|
|-------------------|------------------|------------|-----------------------|
|--------------12\--|---9-----7---10---|-9-------8--|-------6-7-9-7-6-------|
|-14-14--12--x-10\--|---7-----5----8---|-7---7---6--|-6-7-9-----------7-6---|
|-12-12--10--x------|-0---0-0---0----0-|-----5------|-----------------------|
|-------------------|------------------|------------|-----------------------|


 Verse
                 N.C.
 8/4
  PM|
|---------------------0-----|-----------------------|
|------^0-(0)----0----------|-----------------------|
|------^5-(5)---------------|-/7--------9-----------|
|------^7-(7)---------------|-/9-------------10\----|
|-0-0--^0-(0)---------------|-----------------------|
|---------------------------|-----------------------|


                     PM|
|------------------------|-----------------------|
|------------------------|-----------------------|
|------------------------|-----------------------|
|-----7------------------|-----7-----------------|
|-5---5---8----7--5------|-5---5---8----7--5--7--|
|-3-------6----5--3--0-0-|-3-------6----5--3--5--|


  PM|
|----------------------------|-------------------<12>----|
|------0-(0)-----------------|-------------<12>----------|
|------5-(5)---------5-------|-/7------------------------|
|------7-(7)----<7>-----<7>--|-/9----<12>----------------|
|-0-0--0-(0)-----------------|---------------------------|
|----------------------------|---------------------------|


                     PM----------------------------------|
|------------------------|---------------------------------|
|------------------------|---------------------------------|
|------------------------|---------------------------------|
|-----7------------------|---------------------------------|
|-5---5---8----7--5------|-------5-5-5---------------------|
|-3-------6----5--3--0-0-|-3-3-3-------6-6-6-5-5-5-3-3-5-5-|


   Chorus
    N.C.
   6/4
||------------------------------|--------------------------|
||o-----------------------------|--------------------------|
||------------------------------|--------------------------|
||------------------------------|--------------------------|
||o-----[8]--[7]----------------|-----[8]--[7]--8-7--------|
||--0-0-----------0-0-[8]--[7]--|-0-0---------------8-7-8--|


|-----------------------------|-----------------------------||
|-----------------------------|----------------------------o||
|-----------------------------|-----------------------------||
|-----------------------------|-----------------------------||
|-----[8]--[7]----------------|-----[8]--[7]--8-7-----10---o||
|-0-0-----------0-0-[8]--[7]--|-0-0---------------8-7--8----||


 Verse
  N.C.
 4/4
|-------------------|-------------------|
|-------------------|-------------------|
|--------------12\--|---9-9---7-7-10-10-|
|-14-14--12--x-10\--|---7-7---5-5--8--8-|
|-12-12--10--x------|-0-----0-----------|
|-------------------|-------------------|


                         \1/   \1/   \1/
|----------------|-------------------------|
|----------------|-------------------------|
|-9-9---------8--|-(8)--(8)---(8)---(8)----|
|-7-7---7-7---6--|-(6)--(6)---(6)---(6)----|
|-----0-6-6-0----|-------------------------|
|----------------|-------------------------|


|-------------------|-------------------|----------|-----------------------|
|-------------------|-------------------|----------|-----------------------|
|--------------12\--|---9-9---7-7-10-10-|-9-----8--|-------6-7-9-7-6-------|
|-14-14--12--x-10\--|---7-7---5-5--8--8-|-7--7--6--|-6-7-9-----------7-6---|
|-12-12--10--x------|-0-----0-----------|----5-----|-----------------------|
|-------------------|-------------------|----------|-----------------------|


 Verse
  N.C. Am/E     N.C.
 8/4
  PM|
|--------------------0----|------------------------------<12>---|
|------0-(0)----0---------|------------------------<12>---------|
|------5-(5)--------------|-/7--------------<7>-----------------|
|------7-(7)--------------|-/9---------<7>----------------------|
|-0-0--0-(0)--------------|-------<7>---------------------------|
|-------------------------|-------------------------------------|


                     PM|
|------------------------|-----------------------|
|------------------------|-----------------------|
|------------------------|-----------------------|
|-----7------------------|-----7-----------------|
|-5---5---8----7--5------|-5---5---8----7--5--7--|
|-3-------6----5--3--0-0-|-3-------6----5--3--5--|


  N.C. Am/E     N.C.
  PM|
|----------------------------|------------------------------<12>---|
|----------------------------|------------------------<12>---------|
|------5-(5)---------5-------|-/7--------------<7>-----------------|
|------7-(7)----<7>-----<7>--|-/9---------<7>----------------------|
|-0-0--7-(7)-----------------|-------<7>---------------------------|
|----------------------------|-------------------------------------|


                     PM----------------------------------|
|------------------------|---------------------------------|
|------------------------|---------------------------------|
|------------------------|---------------------------------|
|-----7------------------|---------------------------------|
|-5---5---8----7--5------|-------5-5-5---------------------|
|-3-------6----5--3--0-0-|-3-3-3-------6-6-6-5-5-5-3-3-5-5-|


 Chorus
  N.C.
 6/4
  Gtr V
|-----------------------------|--------------------------|
|-----------------------------|--------------------------|
|-----------------------------|--------------------------|
|-----------------------------|--------------------------|
|-----[8]--[7]----------------|-----[8]--[7]--8-7--------|
|-0-0-----------0-0-[8]--[7]--|-0-0---------------8-7-8--|
|
| Gtr VI
|-----------------------------|--------------------------|
|-----------------------------|--------------------------|
|-----------------------------|--------------------------|
|-----------------------------|--------------------------|
|-----[8]--[7]----------------|-----[8]--[7]--8-7--------|
|-0-0-----------0-0-[8]--[7]--|-0-0---------------8-7-8--|


          ~          ~                          ~~
|-----------------------|----------------------------|
|-----------------------|----------------------------|
|-----------------------|----------------------------|
|-----10--9-------------|-----10--9--10-9------------|
|----------------10--9--|-----------------10-9-10----|
|-0-0--------0-0--------|-0-0------------------------|
|
|         ~          ~                          ~~
|-----------------------|----------------------------|
|-----------------------|----------------------------|
|-----------------------|----------------------------|
|-----10--9-------------|-----10--9--10-9------------|
|----------------10--9--|-----------------10-9-10----|
|-0-0--------0-0--------|-0-0------------------------|


|-----------------------------|--------------------------|
|-----------------------------|--------------------------|
|-----------------------------|--------------------------|
|-----------------------------|--------------------------|
|-----[8]--[7]----------------|-----[8]--[7]--8-7--------|
|-0-0-----------0-0-[8]--[7]--|-0-0---------------8-7-8--|
|
|-----------------------------|--------------------------|
|-----------------------------|--------------------------|
|-----------------------------|--------------------------|
|-----------------------------|--------------------------|
|-----[8]--[7]----------------|-----[8]--[7]--8-7--------|
|-0-0-----------0-0-[8]--[7]--|-0-0---------------8-7-8--|


|-----------------------------|-------------------------------|
|-----------------------------|-------------------------------|
|-----------------------------|-------------------------------|
|-----10----9-----------------|-----10----9---10-9------------|
|-----[8]--[7]------10----9---|-----[8]--[7]---8-7-10S9S10----|
|-0-0-----------0-0-[8]--[7]--|-0-0-----------------8S7S=8----|
|
|                         ~~~                            ~~
|-----------------------------|-------------------------------|
|-----------------------------|-------------------------------|
|-----------------------------|-------------------------------|
|-----10----9-----------------|-----10----9---10-9------------|
|-------------------10----9---|--------------------10-9-10----|
|-0-0-----------0-0-----------|-0-0---------------------------|


 Solo II
  N.C.
 7/4                 4/4
  Gtrs V, VI
|-------------------|-------------|-------------|-----------|
|-------------------|-------------|-------------|-----------|
|----------------9--|------5------|----------5--|-----------|
|------5----7----7--|--------9----|-------------|------9----|
|-7----3----5-------|-7-----------|-7-----------|-7---------|
|-5-----------------|-5-----------|-5----5-5----|-5---------|


                          PM----|       PM|
|----------|------------|-------------------|
|----------|------------|-------------------|
|-7--------|------------|-------------------|
|-7--------|-----7------|---------7---------|
|-0--------|-5---5---8--|---------5--8------|
|----------|-3-------6--|-0-0-0-0----6--0-0-|


             PM----|
|----------|------------------|
|----------|------------------|
|----------|------------------|
|----7-----|---------7--------|
|-5--5--8--|---------5--8--8--|
|-3-----6--|-0-0-0-0----6--6--|


|---------------|---------------------|
|---------------|---------------------|
|------5-(5)----|----------(5)-(5)----|
|----5----------|------(5)------------|
|---------------|---------------------|
|-3-------------|-(3)-----------------|


  G/D                     N.C.
|-----------|-----------|------------|
|-^0--------|-^0--------|------------|
|-^0--------|-^0--------|------------|
|-^0--------|-^0--------|-----7------|
|-----------|-----------|-5---5---8--|
|-----------|-----------|-3-------6--|


           PM|     PM|   PM----|
|--------------|-----------------|-----------------|
|--------------|-----------------|-----------------|
|--------------|-----------------|-----------------|
|--------------|-------5---------|-----------------|
|-8--7--5------|-5-----3---------|---------5S3S5\--|
|-6--5--3--0-0-|-3-0-0---0-0-0-0-|-0-0-0-0-3S1S3\--|


 Solo III
  N.C.
 6/4
|---------------------|----------------------|
|---------------------|----------------------|
|---------------------|----------------------|
|---------------------|----------------------|
|-----8--7------------|-----8--7--8-7--------|
|-0-0-------0-0-8--7--|-0-0-----------8-7-8--|


|---------------------|-----------------------|
|---------------------|-----------------------|
|---------------------|-----------------------|
|---------------------|-----------------------|
|-----8--7------------|-----8--7--8-7-----10--|
|-0-0-------0-0-8--7--|-0-0-----------8-7--8--|


|-----------------------|--------------------------|
|-----------------------|--------------------------|
|-----10--9-------------|-----10--9--10-9----------|
|----------------10--9--|-----------------10-9-10--|
|-----------------------|--------------------------|
|-0-0--------0-0--------|-0-0----------------------|


|-----------------------|---------------------------|
|-----------------------|---------------------------|
|-----10--9-------------|-----10--9--10-9-----------|
|----------------10--9--|-----------------10-9-10\--|
|-----------------------|---------------------------|
|-0-0--------0-0--------|-0-0-----------------------|


 Breakdown
  N.C.
  Gtrs V, VI
  PM-------------------------------------
|-------------------|-------------------|
|-------------------|-------------------|
|-------------------|-------------------|
|-------------------|-------------------|
|-2-2-2----2-2-2----|-2-2-2----2--2--2--|
|-0-0-0----0-0-0----|-0-0-0----0--0--0--|


 ------------------------------------|
|-------------------|---------------------|
|-------------------|---------------------|
|-------------------|---------------------|
|-------------------|---------------------|
|-2-2-2----2-2-2----|-2-2-2----2--2--2----|
|-0-0-0----0-0-0----|-0-0-0----0--0--0----|


  Gtr V
   PM--------------------------------------------------------
|-------------------------------|---------------------------|
|-------------------------------|---------------------------|
|-------------------------------|---------------------------|
|-------------------------------|---------------------------|
|--2--2--2--------2--2--2-------|--2--2--2-------2---2--2---|
|--0--0--0--------0--0--0-------|--0--0--0-------0---0--0---|
|
| Gtr VI
|                           PM|                         PM|
|-------------------------------|---------------------------|
|-------------------------------|---------------------------|
|-------------------------------|---------------------------|
|-------------------------------|---------------------------|
|-[5]---[7]---------------------|-[5]---[7]--8-7------------|
|------------0-0-[8]---[7]--0-0-|----------------8-7-8--0-0-|


 -------------------------------------------------------|
|-------------------------------|----------------------------|
|-------------------------------|----------------------------|
|-------------------------------|----------------------------|
|-------------------------------|----------------------------|
|--2--2--2--------2--2--2-------|--2--2--2-------2---2--2----|
|--0--0--0--------0--0--0-------|--0--0--0-------0---0--0----|
|
|                           PM|
|-------------------------------|----------------------------|
|-------------------------------|----------------------------|
|-------------------------------|----------------------------|
|-------------------------------|----------------------------|
|-[5]---[7]---------------------|-[5]---[7]--8-7-------------|
|------------0-0-[8]---[7]--0-0-|----------------8-7-8-------|


  PM------------------------------------------------------------
|-------------------------------|------------------------------|
|-------------------------------|------------------------------|
|-------------------------------|------------------------------|
|-------------------------------|------------------------------|
|-2-2---2--------2-2---2--------|-2-2---2---------2----2----2--|
|-0-0---0--------0-0---0--------|-0-0---0---------0----0----0--|
|
|-------------------------------|------------------------------|
|-------------------------------|------------------------------|
|-----[10]--[9]-----------------|-----[10]--[9]--10-9----------|
|--------------------[10]--[9]--|---------------------10-9-10--|
|-------------------------------|------------------------------|
|-0-0------------0-0------------|-0-0--------------------------|


 ----------------------------------------------------------|
|-------------------------------|---------------------------------|
|-------------------------------|---------------------------------|
|-------------------------------|---------------------------------|
|-------------------------------|---------------------------------|
|-2-2---2--------2-2---2--------|-2-2---2---------2----2----2-----|
|-0-0---0--------0-0---0--------|-0-0---0---------0----0----0-----|
|
|-------------------------------|---------------------------------|
|-------------------------------|---------------------------------|
|-----[10]--[9]-----------------|-----[10]--[9]--10-9-------------|
|--------------------[10]--[9]--|---------------------10-9-10\----|
|-------------------------------|---------------------------------|
|-0-0------------0-0------------|-0-0-----------------------------|


 Verse
  N.C.
 4/4
  Gtrs V, VI
                                                            \1/   \1/   \1/
|-------------------|------------------|------------|-------------------------|
|-------------------|------------------|------------|-------------------------|
|--------------12\--|---9-----7---10---|-9-------8--|-(8)--(8)---(8)---(8)----|
|-14-14--12--x-10\--|---7-----5----8---|-7---7---6--|-(6)--(6)---(6)---(6)----|
|-12-12--10--x------|-0---0-0---0----0-|-----5------|-------------------------|
|-------------------|------------------|------------|-------------------------|


|-------------------|------------------|------------|-----------------------|
|-------------------|------------------|------------|-----------------------|
|--------------12\--|---9-----7---10---|-9-------8--|-------6-7-9-7-6-------|
|-14-14--12--x-10\--|---7-----5----8---|-7---7---6--|-6-7-9-----------7-6---|
|-12-12--10--x------|-0---0-0---0----0-|-----5------|-----------------------|
|-------------------|------------------|------------|-----------------------|


 Verse
  N.C. Am/E     N.C.
 8/4
  PM|                                                                   PM|
|--------------------0----|------------------------|--------------------------|
|------0-(0)----0---------|------------------------|--------------------------|
|------5-(5)--------------|--/7--------9-----------|--------------------------|
|------7-(7)--------------|--/9-------------10\----|-----7--------------------|
|-0-0--0-(0)--------------|------------------------|-5---5---8----7--5--------|
|-------------------------|------------------------|-3-------6----5--3--0-0---|


                          PM|
|-----------------------|----------------------------|
|-----------------------|------0-(0)-----------------|
|-----------------------|------5-(5)---------5-------|
|-----7-----------------|------7-(7)----<7>-----<7>--|
|-5---5---8----7--5--7--|-0-0--0-(0)-----------------|
|-3-------6----5--3--5--|----------------------------|


|------------------------------<12>----|
|------------------------<12>----------|
|-/7--------------<7>------------------|
|-/9---------<7>-----------------------|
|-------<7>----------------------------|
|--------------------------------------|


                     PM----------------------------------|
|------------------------|---------------------------------|
|------------------------|---------------------------------|
|------------------------|---------------------------------|
|-----7------------------|---------------------------------|
|-5---5---8----7--5------|-------5-5-5---------------------|
|-3-------6----5--3--0-0-|-3-3-3-------6-6-6-5-5-5-3-3-5-5-|


 Chorus
  N.C.
 6/4
  Gtr V
|-----------------------------|--------------------------|
|-----------------------------|--------------------------|
|-----------------------------|--------------------------|
|-----------------------------|--------------------------|
|-----[8]--[7]----------------|-----[8]--[7]--8-7--------|
|-0-0-----------0-0-[8]--[7]--|-0-0---------------8-7-8--|
|
| Gtr VI
|-----------------------------|--------------------------|
|-----------------------------|--------------------------|
|-----------------------------|--------------------------|
|-----------------------------|--------------------------|
|-----[8]--[7]----------------|-----[8]--[7]--8-7--------|
|-0-0-----------0-0-[8]--[7]--|-0-0---------------8-7-8--|


            ~~~           ~~~                            ~~
|-----------------------------|-------------------------------|
|-----------------------------|-------------------------------|
|-----------------------------|-------------------------------|
|-----10----9-----------------|-----10----9---10-9------------|
|-------------------10----9---|--------------------10-9-10----|
|-0-0-----------0-0-----------|-0-0---------------------------|
|
|-----------------------------|-------------------------------|
|-----------------------------|-------------------------------|
|-----------------------------|-------------------------------|
|-----------------------------|-------------------------------|
|-----[8]--[7]----------------|-----[8]--[7]---8-7------------|
|-0-0-----------0-0-[8]--[7]--|-0-0-----------------8-7--8----|


  Gtrs V, VI
            ~~~           ~~~                            ~~
|-----------------------------|-----------------------------|
|-----------------------------|-----------------------------|
|-----------------------------|-----------------------------|
|-----10----9-----------------|-----10----9---10-9----------|
|-------------------10----9---|--------------------10-9-10--|
|-0-0-----------0-0-----------|-0-0-------------------------|
|
|-----------------------------|-----------------------------|
|-----------------------------|-----------------------------|
|-----------------------------|-----------------------------|
|-----------------------------|-----------------------------|
|-----[8]--[7]----------------|-----[8]--[7]---8-7----------|
|-0-0-----------0-0-[8]--[7]--|-0-0-----------------8-7--8--|


          ~          ~                          ~~
|-----------------------|----------------------------|
|-----------------------|----------------------------|
|-----------------------|----------------------------|
|-----10--9-------------|-----10--9--10-9------------|
|----------------10--9--|-----------------10-9-10----|
|-0-0--------0-0--------|-0-0------------------------|
|
|         ~          ~                          ~~
|-----------------------|----------------------------|
|-----------------------|----------------------------|
|-----------------------|----------------------------|
|-----10--9-------------|-----10--9--10-9------------|
|----------------10--9--|-----------------10-9-10----|
|-0-0--------0-0--------|-0-0------------------------|


 Outro
                                 4/4
|---------------|---------------|-----------*|
|-1------0------|---------------|-----------*|
|-2------4------|-7------8------|-----------*|
|-2------0------|-5------8------|-9-9-9\----*|
|-0------2------|-5------6------|-7-7-7\----*|
|---------------|---------------|-----------*|

Tablature Legend
----------------
 h   - hammer-on
 p   - pull-off
 b   - bend
 pb  - pre-bend
 r   - bend release (if no number after the r, then release immediately)
 /  - slide into or out of (from/to "nowhere")
 s   - legato slide
 S   - shift slide
<n>  - natural harmonic
[n]  - artificial harmonic
n(n) - tapped harmonic
 ~   - vibrato
 tr  - trill
 T   - tap
 TP  - trem. picking
 PM  - palm muting
n/  - tremolo bar dip; n = amount to dip
 n  - tremolo bar down
 n/  - tremolo bar up
/n  - tremolo bar inverted dip
 =   - hold bend; also acts as connecting device for hammers/pulls
 <>  - volume swell (louder/softer)
 x   - on rhythm slash represents muted slash
 o   - on rhythm slash represents single note slash

Misc Legend
-----------
 |  - bar
||  - double bar
||o - repeat start
o|| - repeat end
*|  - double bar (ending)
 :  - bar (freetime)
 $  - Segno
 &  - Coda
Tempo markers - <E/E./Q/Q./H/H.> = BPM(8/16=s8/s16),
where s8 = swing 8ths, s16 = swing 16ths

  Visit MetalTabs.com for more metal tablature

  Visit MetalTabs.com for more metal tablature

bottom separator

Contact Us | Privacy Policy | Disclaimer | Legal Notice
Copyright © 2001-2014 MetalTabs.com. All Rights Reserved.