top separator

Home

Forum

What's New

Submit a Tab

FAQ

Links

Contact Us

Link to Us

MuSpy.com

MetalTabs.com logo

Bands

0-9

A

B

C

D

E

F

G

H

I

J

K

L

M

N

O

P

Q

R

S

T

U

V

W

X

Y

Z

Search

What

Where
 

Cancer - "Blood Bath" Guitar Tab

Plain Text Version
More Cancer Tabs

Hits: 2388
Updated: 2005-11-07 04:24:57

 

By:

kin

sendpm.gif

email.gif

Important note
We did our best to reach Cancer and ask for their permission to publish this tab. Unfortunately they did not respond to our requests or we could not find a way to contact them. This tab is available online until Cancer tells us to take it down.


#----------------------------------PLEASE NOTE---------------------------------#
#This file is the author's own work and represents their interpretation of the #
#song. You may only use this file for private study, scholarship, or research. #
#Unless specified otherwise, this is NOT an official tab from the band members.#
#------------------------------------------------------------------------------#

  Visit MetalTabs.com for more metal tablature
  
Band:  Cancer
Album: To The Gory End
Song:  Blood Bath

Copyright (c)  Vinyl Solution / Restless 1990
Version 1.0 - 9/29/05

Transcribed By: Dominic Rodriguez (kin)
Email:          kalidice@email.com

Special Legend Key:

.    = Palm Mute
,    = Slight Palm Mute
-3-  = Triplet
Visit http://www.MetalTabs.com for more metal tabs.

-Note : Sorry if you don't like the series of riff
structures. Mail me or something if I should change
them.

Tuning DGCFAD

Riff 1 (Intro. Play the second after the first)

D|--------------|-------------------|
A|--------------|-------------------|
F|--------------|-------------------|
C|-----4-3======|--------------7-8-9|
G|2====2-1======|2====5-4======5-6-7|
D|0====---------|0====3-2======-----|

Riff 2 x3

D|---------------------------------|
A|---------------------------------|
F|---------------------------------|
C|-----------7-8-9------------7-8-9|
G|-----------5-6-7------------5-6-7|
D|3333333333-------2222221111------|
  ..........       ..........

Riff 3

D|---------------------------------|
A|---------------------------------|
F|---------------------------------|
C|-----------7-8-9-----------------|
G|-----------5-6-7-----------------|
D|3333333333-------2222221111222222|
  ..........       ................

Riff 4 x4

D|----------------------------------|
A|----------------------------------|
F|----------------------------------|
C|-----3========-----3====7-----6---|
G|2----1========2----1====5--7--4--6|
D|0--0----------0--0---------5-----4|
     .          .

Riff 5 (Series of riffs)
[NOTE: Structure of this riff series is:
I, A, I, B, I, A, I, B, I, A, I, B, I, A, I, B]

            [I]          [A]   [B]

D|----------------------|----|----|
A|----------------------|----|----|
F|----------------------|----|----|
C|----------------------|3--3|4--3|
G|2-2-2-2-2-2-2-2-2-2-2-|1--1|2--1|
D|0-0-0-0-0-0-0-0-0-0-0-|----|----|
    . . . . . .   . . .

Riff 6 x2

D|----------------------------------|
A|----------------------------------|
F|----------------------------------|
C|-----3======-----3======7-----6---|
G|2----1======2----1======5--7--4--6|
D|0--0--------0--0-----------5-----4|
     .           .

Riff 7 (Transition Riff)

D|------------------|
A|------------------|
F|----------4-4--3-3|
C|----------2-2--1-1|
G|5-5--4-4----------|
D|3-3--2-2----------|
  . .  . .  . .  . .

Riff 8 (Series of riffs)
[NOTE: Structure of this riff series is:
I, A, I, B, I, A, I, B]

             [I]              [A]       [B]

D|-------------------------|--------|--------|
A|-------------------------|--------|--------|
F|-------------------------|--------|22221111|
C|-----------------22221111|--------|--------|
G|--------22221111---------|11112222|--------|
D|22221111-----------------|--------|--------|
  ......................... ........ ........

Riff 9 (Series of riffs)
[NOTE: Structure of this riff series is:
I, A, I, B, I, A, I, B, I, A, I, B, I, A, I, B]

            [I]          [A]   [B]

D|----------------------|----|----|
A|----------------------|----|----|
F|----------------------|----|----|
C|----------------------|3--3|4--3|
G|2-2-2-2-2-2-2-2-2-2-2-|1--1|2--1|
D|0-0-0-0-0-0-0-0-0-0-0-|----|----|
    . . . . . .   . . .

Riff 10 (Series of riffs)
[NOTE: Structure of this riff series is:
I, A, I, B, I, A, I, B]

            [I]         [A]    [B]

D|---------------------|-----|----|
A|---------------------|-----|----|
F|---------------------|-----|----|
C|---------------------|--^-^|3---|
G|5-5-5-5-5-5-5-6\5-5-5|566-7|1--4|
D|3-3-3-3-3-3-3-4\5-3-3|-----|---2|
    . . . . . .     . .

Riff 11

D|-----------------------------------------------|
A|-----------------------------------------------|
F|--------------------4-3========-----------7-6-4|
C|--------------------2-1========-----------5-4-2|
G|2========5-4========-----------3-4========-----|
D|0========3-2========-----------1-2========-----|

Riff 12

D|-----------------------------------------------|
A|-----------------------------------------------|
F|--------------------4-3========-----------7-8-9|
C|--------------------2-1========-----------5-6-7|
G|2========5-4========-----------3-4========-----|
D|0========3-2========-----------1-2========-----|

Riff 13 x3

D|---------------------------------|
A|---------------------------------|
F|---------------------------------|
C|-----------7-8-9------------7-8-9|
G|-----------5-6-7------------5-6-7|
D|3333333333-------2222221111------|
  ..........       ..........

Riff 14

D|---------------------------------|
A|---------------------------------|
F|---------------------------------|
C|-----------7-8-9-----------------|
G|-----------5-6-7-----------------|
D|3333333333-------2222221111222222|
  ..........       ................

Riff 15 x2

D|---------------------------------|
A|---------------------------------|
F|---------------------------------|
C|-----3=======-----3====7-----6---|
G|2----1=======2----1====5--7--4--6|
D|0--0---------0--0---------5-----4|
     .            .

Riff 16 x2

D|-------------------------------------|
A|-------------------------------------|
F|-------------------------------------|
C|------3========-------3====7-----6---|
G|2-2-2-1========-2-2-2-1====5--7--4--6|
D|0-0-0-----------0-0-0---------5-----4|
  . . .           . . .

Riff 17 [kill song riff]

D|-|
A|-|
F|-|
C|-|
G|2|
D|0|

  Visit MetalTabs.com for more metal tablature

bottom separator

Contact Us | Privacy Policy | Disclaimer | Legal Notice
Copyright © 2001-2014 MetalTabs.com. All Rights Reserved.