top separator

Home

Forum

What's New

Submit a Tab

FAQ

Links

Contact Us

Link to Us

MetalTabs.com logo

Bands

0-9

A

B

C

D

E

F

G

H

I

J

K

L

M

N

O

P

Q

R

S

T

U

V

W

X

Y

Z

Search

What

Where
 

Dismember - "Chasing the Serpent" Guitar Tab

Plain Text Version
More Dismember Tabs

Hits: 3452
Rated: 4.00 out of 5 (1 vote)
Updated: 2005-10-29 03:45:29

 

By:

Daniil

sendpm.gif

email.gif

Important note
This tab is available online because we obtained explicit permission from Dismember or their label.


#----------------------------------PLEASE NOTE---------------------------------#
#This file is the author's own work and represents their interpretation of the #
#song. You may only use this file for private study, scholarship, or research. #
#Unless specified otherwise, this is NOT an official tab from the band members.#
#------------------------------------------------------------------------------#

  Visit MetalTabs.com for more metal tablature
  
DISMEMBER-Chasing The Serpent
Where Iron Crosses Grow-2004
Copyright Karmageddon Media
Transcribed by Daniil Laletin
e-mail: dlaletin@mail.ru
version 1.0 August 2005

All corrections are welcome.

 " - tremolo
 / - slide down
 \ - slide up
 . - palm mute
 ~ - long sound
 x - rest
 p - pull off
 h - hammer on
 tr - trill
 () - ghost note, sustained note
 * - artificial harmonics
 b - bend


Tuning from low to high: C F A# D# G C
======================================

 Intro
|-----------------------------------------------------|
|-----------------------------------------------------|
|-----------------------------------------------------|
|-2-----------(2)-----------2-------------------------|
|-2-----------(2)-----------2------------3-2-0--------|
|-0-----------(0)-----------0------------------1~--4~-|
|
|-----------------------------------------------------|
|-----------------------------------------------------|
|--------2-------------------------2------------------|
|-2-0-2~---3-2---2-1~---0---2-0-2~---3-2--------------|
|--------------3----------1--------------3-2-0--------|
|---------------------0------------------------1~--4~-|

|-----------------------------------------------------|
|-----------------------------------------------------|
|-----------------------------------------------------|
|-2-----------(2)-----------2------------5-4-2--------|
|-2-----------(2)-------222-2------------3-2-0-3~--6~-|
|-0-----------(0)-----0-000-0------------------1~--4~-|
|                     . ...
|-----------------------------------------------------|
|-----------------------------------------------------|
|--------2-------------------------2------------------|
|-2-0-2~---3-2---2-1~---0---2-0-2~---3-2-5-4-2--------|
|--------------3----------1--------------3-2-0-3~--6~-|
|---------------------0------------------------1~--4~-|


 Riff 1
|-----------------------------------------------------|
|-----------------------------------------------------|
|--------2-------------------------2------------------|
|-2-0-2~---3-2---2-1~---0---2-0-2~---3-2--------------|
|--------------3------2---1--------------3-2-0--------|
|---------------------0----------------------.-1~--4~-|
                      .
|-----------------------------------------------------|
|-----------------------------------------------------|
|--------2-------------------------2------------------|
|-2-0-2~---3-2---2-1~---0---2-0-2~---3-2-5-4-2--------|
|--------------3------2---1--------------3-2-0-3~--6~-|
|---------------------0----------------------.-1~--4~-|
                      .

 Riff 2
|-------------------------------------------------------|
|-------------------------------------------------------|
|-------------------------------------------------------|
|-4------4--------------------4------4------2200223322--|
|-2-0000-2-3333-2------2------2-0000-2-3333-----------1-|
|---....---....-0-0000-0-0000---....---....-------------|
                  ....   ....

 Riff 3a
|-----------------------------------------------------|
|-----------------------------------------------------|
|-----------------------------------------------------|
|-----------------------------------------------------|
|-------------2"1"----1"----------------2"1"----1"----|
|-0"----3"---------3"----3"-0"----3"---------3"-------|

|---------------------------------------------------|
|---------------------------------------------------|
|---------------------------------------------------|
|---------------------------------------------------|
|-------------2"1"----1"----------------0"----1"----|
|-0"----3"---------3"----3"-0"----3"----------------|


 Riff 3b
|-----------------------------------------------------|
|-----------------------------------------------------|
|-----------------------------------------------------|
|-----------------------------------------------------|
|-------------2"1"----1"----------------2"1"----1"----|
|-0"----3"---------3"----3"-0"----3"---------3"-------|

|------------------------------------------------|
|------------------------------------------------|
|------------------------------------------------|
|------------------------------------------------|
|-------------2"1"----1"----------5----5-7---7-8-|
|-0"----3"---------3"----3"-0"----3--3-3-5-5-5-6-|
                                     .     .

 Riff 4
|----------------------------------------|
|----------------------------------------|
|----------------------------------------|
|-----------2-0-2-3-2--------------------|
|-5-7-8--2------------1--5-7-8--2--6--3--|
|-3-5-6--0---------------3-5-6--0--4--1--|


 Riff 5
|-------------------------------------------------|
|-------------------------------------------------|
|-------------------------------------------------|
|-------3----3--2-0-2-2---2--3--3---------3-3-----|
|-------3----3--2-0-2-2---2--1--1---5-5---1-1--3--|
|-0-000-1----1--------0---0--1--1---3-3--------1--|


 Fill 1
|----|
|----|
|----|
|-22-|x8
|-22-|
|-00-|


 Fill 2
|--------------------|
|--------------------|
|--------------------|
|-2-222-0-22---22-22-|
|-2-222-0-22---22-22-|
|--------------00-00-|


 Riff 6
|--------------------------------------------------|
|--------------------------------------------------|
|--------------------------------------------------|
|-2-222-0-22---22-22--2-222-0-22-----5-4-----5-4---|
|-2-222-0-22---22-22--2-222-0-22--/7-----5-7-----5-|
|--------------00-00-------------------------------|

|----------------------------------------|
|----------------------------------------|
|-555555555-55-55--777777777--888888888--|
|-555555555-55-55--777777777--888888888--|
|-333333333-33-33--555555555--666666666--|
|-333333333-33-33--555555555--666666666--|

  Visit MetalTabs.com for more metal tablature

bottom separator

Contact Us | Privacy Policy | Disclaimer | Legal Notice
Copyright © 2001-2014 MetalTabs.com. All Rights Reserved.