top separator

Home

Forum

What's New

Submit a Tab

FAQ

Links

Contact Us

Link to Us

MuSpy.com

MetalTabs.com logo

Bands

0-9

A

B

C

D

E

F

G

H

I

J

K

L

M

N

O

P

Q

R

S

T

U

V

W

X

Y

Z

Search

What

Where
 

Cadaveria - "Eleven Three O Three" Guitar Tab

Plain Text Version
More Cadaveria Tabs

Hits: 2245
Updated: 2005-10-29 03:45:23

 

By:

Daniil

sendpm.gif

email.gif

Important note
This tab is available online because we obtained explicit permission from Cadaveria or their label.


#----------------------------------PLEASE NOTE---------------------------------#
#This file is the author's own work and represents their interpretation of the #
#song. You may only use this file for private study, scholarship, or research. #
#Unless specified otherwise, this is NOT an official tab from the band members.#
#------------------------------------------------------------------------------#

  Visit MetalTabs.com for more metal tablature
  
CADAVERIA-Eleven Three O Three
Far Away From Conformity-2004
Copyright Scarlet Records
Transcribed by Daniil Laletin
e-mail: dlaletin@mail.ru
version 1.0 August 2005

All corrections are welcome.

 " - tremolo
 / - slide down
 \ - slide up
 . - palm mute
 ~ - long sound
 x - rest
 p - pull off
 h - hammer on
 tr - trill
 () - ghost note, sustained note
 * - artificial harmonics
 b - bend


Tuning from low to high: B E A D F# B
=====================================
Note: Always use very heavy palm muting
=======================================

 Riff 1
|---------------------------------3---------|
|---------------------------------*-5-------|
|-----------------------------------*-4-----|
|-----2------------------2------------*-5-2-|
|-2-2---1-22-222-3---2-2---1-22-2-------*-*-|
|-0-0-----00-000-1---0-0-----00-0-----------|
          .. ...             .. .


 Fill 1                     Fill 2
|---------------------|    |------------------|
|---------------------|    |------------------|
|---------------------|    |------------------|
|---------------------|    |------------------|
|-22-----22----222222-|    |-22-----22----/---|
|-00-----00----000000-|    |-00-----00----/---|
  ..     ..    ......        ..     ..

 Fill 3
|---------------------------|
|---------------------------|
|-3-------------------------|
|-3----4--------------------|
|-1----4----1h2h5p2-1-------|
|------2--------------3-2-0-|


 Riff 2
|----------------------------------------------------------------------|
|----------------------------------------------------------------------|
|----------------------------------------------------------------7-----|
|----------------9"-8"-7"-5"----4"5"---- 0h5h7-0h5h7-0h5h7-0h5h7---754-|
|-7"----5"7"-----------------------------------------------------------|
|----------------------------------------------------------------------|


 Riff 3
|----------------------------------------|
|----------------------------------------|
|-4--444-2-4--444-2-4--444-2-4-2-4-6-4-2-|
|-2--222-0-2--222-0-2--222-0-2-0~~-------|x2
|----...------...------...---------------|
|----------------------------------------|

|-------------------------------|
|-------------------------------|
|-7-7---6-6-7-4--444-2-4--444-4-|
|-7-7-9-7-7-7-2--222-0-2--222-2-|x2
|-5-5-7-4-4-5----...------...---|
|-------------------------------|
-

 Fill 4
|-------------------------|      |-------------------------|
|-------------------------|      |-------------------------|
|-------------------------|      |-------------------------|
|-------------------------| then |-4h5-5-5-4h5-5-5-4h5-555-|
|-5h7-7-7-5h7-7-7-5h7-777-|      |-5h7-7-7-5h7-7-7-5h7-777-|
|-------------------------|      |-------------------------|


 Riff 4
|--------------------|
|--------------------|
|--------------------|
|--------------------|
|-2---xx-2---xx-2-xx-|
|-0---xx-0---xx-0-xx-|


 Riff 5a                             Riff 5b
|-------------------------------|   |-------------------------------|
|-------------------------------|   |-------------------------------|
|-------------------------------|   |-------------------------------|
|-------------------------5-----|   |-------------------------5-----|
|-x-5h7-x-5h7-x-5h7-x-5h7---7-5-|   |-x-5-7-x-5-7-x-5-7-x-5h7---7-5-|
|-------------------------------|   |---.-.---.-.---.-.-------------|

  Visit MetalTabs.com for more metal tablature

bottom separator

Contact Us | Privacy Policy | Disclaimer | Legal Notice
Copyright © 2001-2014 MetalTabs.com. All Rights Reserved.