top separator

Home

Forum

What's New

Submit a Tab

FAQ

Links

Contact Us

Link to Us

MetalTabs.com logo

Bands

0-9

A

B

C

D

E

F

G

H

I

J

K

L

M

N

O

P

Q

R

S

T

U

V

W

X

Y

Z

Search

What

Where
 

Cadaveria - "Blood And Confusion" Guitar Tab

Plain Text Version
More Cadaveria Tabs

Hits: 3282
Rated: 5.00 out of 5 (1 vote)
Updated: 2005-10-29 03:45:06

 

By:

Daniil

sendpm.gif

email.gif

Important note
This tab is available online because we obtained explicit permission from Cadaveria or their label.


#----------------------------------PLEASE NOTE---------------------------------#
#This file is the author's own work and represents their interpretation of the #
#song. You may only use this file for private study, scholarship, or research. #
#Unless specified otherwise, this is NOT an official tab from the band members.#
#------------------------------------------------------------------------------#

  Visit MetalTabs.com for more metal tablature
  
CADAVERIA-Blood And Confusion
Far Away From Conformity-2004
Copyright Scarlet Records
Transcribed by Daniil Laletin
e-mail: dlaletin@mail.ru
version 1.0 August 2005

All corrections are welcome.

 " - tremolo
 / - slide down
 \ - slide up
 . - palm mute
 ~ - long sound
 x - rest
 p - pull off
 h - hammer on
 tr - trill
 () - ghost note, sustained note
 * - artificial harmonics
 b - bend


Tuning from low to high: B E A D F# B
=====================================
Note: Always use very heavy palm muting
=======================================

 Riff 1
|--------------------|   |---------------------------------|
|--------------------|   |---------------------------------|
|--------------------|   |-7-5-4---------------------------|
|----------------b---|x3 |-------7-5-4---------------------|x1
|-2-2-2-2-2-2-2x-2~--|   |-------------7p5p3p2p0-----------|
|-0-0-0-0-0-0-0x-----|   |-----------------------7p5p3p2p0-|
  . . . . . . .

 Riff 2
|-------------------------------------------------|
|-------------------------------------------------|
|-------------------------------------------------|
|-2-2-4-2-2-4-5-5-5-5--4--5-5-4-5-5-4-5-5-7-5-4~--|
|-2-2-4-2-2-4-5-5-5-5--4--5-5-4-5-5-4-5-5---------|
|-0-0-2-0-0-2-3-3-3-3--2--3-3-2-3-3-2-3-3---------|


 Fill 1
|---------------------12----|
|---------------------a.h.--|
|-4-4---4-4---4-4---4--9----|
|-2-2---2-2---2-2---2-------|
|-.-.-2-.-.-2-.-.-2-.-------|
|-----2-----2-----2---------|
      .     .     .

 Riff 3
|-----------------------------------------|
|-----------------------------------------|
|------9---7---5-5-4--------9---7---------|
|------9---7---5-5-4--------9---7---8-8---|x2
|------7---5---3-3-2--------7---5---8-8---|
|-0000-----------------0000---------6-6---|

|------------------------------------|
|------------------------------------|
|------------------------------------|
|---7-8-----5-7~------5--------------|x2
|-5-----3~----------8-------7~---5-4-|
|-----------------6-----5~-----------|


 Clean fill
|-------------------------------------|    |---------|
|-------------------------------------|    |---------|
|-------------------------------------|    |-----9~--|
|---7-8-----5~h7~-------5-------------|x2  |---7-----|x1
|-5-----3~------------8-------7~--5-4-|    |-5-------|
|-------------------6-----5~----------|    |---------|


 Riff 4
|-----------------------------------------------|
|---8-7-8---------------------------------------|
|---9-7-9----9-7-9----------5-----7-------------|
|-2--------2-9-9-9----------5-----7-------------|
|-2--------2----------------3-----5-----3p2-----|
|-0--------0--------0-0-0-0-----------------5-3-|
                    . . . .                 . .


 Riff 5
|-----------|    |-------------------------|
|-----------|    |-------------------4h5h7-|
|-----------|    |-------------4h5h7-------|
|---2~------|x6  |-------2h4h5-------------|
|-2---------|    |-2h4h5-------------------|
|-0----0000-|    |-------------------------|
       ....

 Riff 6
|-------------------------|
|-------------------------|
|-4~----5~----3~----4~----|
|-2~----2~----2~----2~----|x2
|-------------------------|
|-------------------------|

|------------------------------------------|
|------------------------------------------|
|-4----4----4-----4----5----5----5----5----|
|---22---22----22---22---22---22---22---22-|
|---..---..----..---..---..---..---..---..-|
|------------------------------------------|\
                                             x2
|------------------------------------------|/
|------------------------------------------|
|-3----3----3----3----4----4----4----4-----|
|---22---22---22---22---22---22---22---22--|
|---..---..---..---..---..---..---..---..--|
|------------------------------------------|

|-------------------------------------------------|
|-------------------------------------------------|
|-4-----4-----5-----5-----3-----3-----4-----4-----|
|---2"----2"----2"----2"----2"----2"----2"----2"--|x1
|-------------------------------------------------|
|-------------------------------------------------|


 Riff 7
|--------------------------------------------------------------------|
|-------8-----8~-----------------------------------------------------|
|------------------------7-----7~---------4-----4~-------------------|
|-----9-----9----------5-----5----------2-----2------------7---------|
|-7~------7--------3~------3--------0~------0------------5---5---4~--|
|----------------------------------------------------3~--------3-2~--|


 Ending chord
|------|
|------|
|------|
|-2----|
|-2----|
|-0----|

  Visit MetalTabs.com for more metal tablature

bottom separator

Contact Us | Privacy Policy | Disclaimer | Legal Notice
Copyright © 2001-2014 MetalTabs.com. All Rights Reserved.