top separator

Home

Forum

What's New

Submit a Tab

FAQ

Links

Contact Us

Link to Us

MetalTabs.com logo

Bands

0-9

A

B

C

D

E

F

G

H

I

J

K

L

M

N

O

P

Q

R

S

T

U

V

W

X

Y

Z

Search

What

Where
 

Battlelore - "Gwaith-i-Mírdain" Guitar Tab

Plain Text Version
More Battlelore Tabs

Hits: 2410
Rated: 4.33 out of 5 (3 votes)
Updated: 2005-10-29 03:40:20

 

By:

Theoldman

sendpm.gif

email.gif

Important note
This tab is available online because we obtained explicit permission from Battlelore or their label.


#----------------------------------PLEASE NOTE---------------------------------#
#This file is the author's own work and represents their interpretation of the #
#song. You may only use this file for private study, scholarship, or research. #
#Unless specified otherwise, this is NOT an official tab from the band members.#
#------------------------------------------------------------------------------#

  Visit MetalTabs.com for more metal tablature
  
Band:  Battlelore
Album: Third Age Of The Sun
Song:  Gwaith-i-Mírdain

Copyright (c)  Napalm Records 2005
Version 1.0 - 26.10.2005

Transcribed By: Theoldman
Email:          swordbearing@hotmail.com
________________________________________

.  - palm mute           /  - slide up to
\  - slide down to       ~  - vibrato
h  - hammer on           b  - Bend
p  - pull off            Suffixes for bend
t  - tap                 f  - full bend    h - half bend
ph - pinched harmonic    q  - quarter bend t - tap bend
*  - see comment         ^  - Hold bend    r release bend
x  - Stuccatto           ~  - vibrato bend
,  - slight palm mute    () - ghost note, sustained note
"  - tremolo note        <> - Trill

Tuning  B E A D G B

Riff 1 (you need highest E in this riff) (0:00-0:14)
|2---2-2-2-2-2---2-2-2-2-|E
|3---3-3-3-3-3---3-3-3-3-|B
|4---4-4-4-4-4---4-4-4-4-|G
|4---4-4-4-4-4---4-4-4-4-|D
|2---2-2-2-2-2---2-2-2-2-|A
|------------------------|E



Riff 2 (0:15-0:42)
|------------------------------------------------|
|------------------------------------------------|
|4---4-4-4-4-0---0-0-0-0-2---2-2-2-2-2---2-2-2-2-|
|2---2-2-2-2-2---2-2-2-2-2---2-2-2-2-0---0-0-0-0-|
|------------------------------------------------|
|------------------------------------------------|

|------------------------------------------------|
|------------------------------------------------|
|------------------------------------------------|
|5---5-5-5-5-5---5-5-5-5-7---7-7-7-7-4---4-4-4-4-|
|3---3-3-3-3-3---3-3-3-3-5---5-5-5-5-5---5-5-5-5-|
|------------------------------------------------|



Riff 3 (0:43-1:11)
|------------------------------------------------|
|------------------------------------------------|
|------------------------------------------------|
|------------------------5-5-5-5-5-5-5-5-5-5-5-5-|
|2-2-2-2-2-2-2-2-2-2-2-2-3-3-3-3-3-3-3-3-3-3-3-3-|
|0-0-0-0-0-0-0-0-0-0-0-0-------------------------|

|-------------------------------------------------|
|-------------------------------------------------|
|-------------------------------------------------|
|------------------------2-2-2-2-2-2--------------|
|5-5-5-5-5-5-5-5-5-5-5-5-0-0-0-0-0-0-2-----2------|
|3-3-3-3-3-3-3-3-3-3-3-3-------------0-00000-0000-|
                                       ....  ....


Riff 2 (1:12-1:40)

Riff 3 (1:41-2:09)



Riff 4 (2:10-2:38)
|------------------------------------------------|
|------------------------------------------------|
|------------------------------------------------|
|2-----------4-----------5-----------7-----------|
|----------------------------------------0-0-0-0-|
|----0-0-0-0-----2-2-2-2-----3-3-3-3-------------|
     . . . .     . . . .     . . . .     . . . .
|------------------------------------------------|
|------------------------------------------------|
|------------------------------------------------|
|2-----------4-----------5-----------4---0-0-4-4-|
|------------------------------------------------|
|----0-0-0-0-----2-2-2-2-----3-3-3-3-------------|
     . . . .     . . . .     . . . .     . . . .



Riff 5 (2:39-3:06)
|------------------------------------------------|
|------------------------------------------------|
|4-4-4-4-4-4-------------------------------------|
|2-2-2-2-2-2-4-4-4-4-4-4-5-5-5-5-5-5-------------|
|------------2-2-2-2-2-2-3-3-3-3-3-3-4-4-4-5-5-5-|
|------------------------------------2-2-2-3-3-3-|



Riff 4 (3:08-3:35)



Riff 6 (3:36)
|------------|
|------------|
|4-----------|
|2-----------|
|------------|
|------------|



END

  Visit MetalTabs.com for more metal tablature

bottom separator

Contact Us | Privacy Policy | Disclaimer | Legal Notice
Copyright © 2001-2014 MetalTabs.com. All Rights Reserved.