MetalTabs.com - your source for Metal tabs
Home Forum What's New Submit a Tab FAQ Links Contact Us Link to Us


Go Back   MetalTabs.com Forum > Musicians > Guitar Zone
User Name
Password


Reply
 
Thread Tools Search this Thread Rate Thread
  #141  
Old 2005-05-11, 23:09
JoeYngVai's Avatar
JoeYngVai JoeYngVai is offline
Vaginal Warts
 
Join Date: Nov 2004
Location: I live in a giant bucket.
Posts: 2,289
Send a message via AIM to JoeYngVai
Chorus:
e----------------------------------------|
B----------------------------------------|
G------------------------------3---------|
D-------5--------7--------5----3---4-----|
A-------5--------7--------5----1---4-----|
E-0-0-0-3--0-0-0-5--0-0-0-3--------2-----|
pm----| pm----| pm----|

e----------------------------------------|
B----------------------------------------|
G-------------------------------3--------|
D-------5--------7--------5-----3--4--3--|
A-------5--------7--------5-----1--4--3--|
E-0-0-0-3--0-0-0-5--0-0-0-3-0-0----2--1--|
pm----| pm----| pm----| pm--|


Probably an easy one.
__________________
Quote:
Originally Posted by PST 88
The bottom of that 'Don't Click' picture is one of the funniest things I've seen in a while. 'No, I really DO have a vagina! It's right here!'


Blackwater (Friend's Metal Band)
MY WEBSITE!


R.I.P Paddy. My dear and loving father will never be forgotten.
Reply With Quote
  #142  
Old 2005-05-12, 00:13
Kylito Kylito is offline
Supreme Metalhead
 
Join Date: Feb 2005
Location: Where the slime live...
Posts: 868
Quote:
Originally Posted by JoeYngVai
Chorus:
e----------------------------------------|
B----------------------------------------|
G------------------------------3---------|
D-------5--------7--------5----3---4-----|
A-------5--------7--------5----1---4-----|
E-0-0-0-3--0-0-0-5--0-0-0-3--------2-----|
pm----| pm----| pm----|

e----------------------------------------|
B----------------------------------------|
G-------------------------------3--------|
D-------5--------7--------5-----3--4--3--|
A-------5--------7--------5-----1--4--3--|
E-0-0-0-3--0-0-0-5--0-0-0-3-0-0----2--1--|
pm----| pm----| pm----| pm--|


Probably an easy one.


Unless it's not "For Whom the Bell Tolls"...
Reply With Quote
  #143  
Old 2005-05-12, 07:38
morbid_priest morbid_priest is offline
Senior Metalhead
 
Join Date: Jul 2004
Location: London, England
Posts: 109
Quote:
Originally Posted by metal=life
|-----5--------5/8h12p8----------8/12h16p12--------------8/20~--
|----5-5----5-5--------10------10----------13----------10 ------
|---5---5----5-----------9-----9-------------12/9------9----------
|--7-----7----------------10-10------------------10--10----------
|-7-------7-----------------12----------------------12------------
|8------------------------------------------------------------------


i remember my mate showed me a dying fetus tab and there was something a bit like that.
so
Dying Fetus?
__________________
PAIN FOR PLEASURE
PAIN FOR ADORATION
PAIN IS TO GODLINESS
BLEEDING IN ECSTASY
Reply With Quote
  #144  
Old 2005-05-12, 09:44
JoeYngVai's Avatar
JoeYngVai JoeYngVai is offline
Vaginal Warts
 
Join Date: Nov 2004
Location: I live in a giant bucket.
Posts: 2,289
Send a message via AIM to JoeYngVai
Quote:
Originally Posted by Kylito
Unless it's not "For Whom the Bell Tolls"...


Well, yeah, cause maybe it's not.



Okay, it is. No more Metallica.
__________________
Quote:
Originally Posted by PST 88
The bottom of that 'Don't Click' picture is one of the funniest things I've seen in a while. 'No, I really DO have a vagina! It's right here!'


Blackwater (Friend's Metal Band)
MY WEBSITE!


R.I.P Paddy. My dear and loving father will never be forgotten.
Reply With Quote
  #145  
Old 2005-05-12, 15:58
younguitarist's Avatar
younguitarist younguitarist is offline
Post-whore
 
Join Date: Mar 2004
Location: San Antonio, TX
Posts: 2,037
Quote:
Originally Posted by morbid_priest
i remember my mate showed me a dying fetus tab and there was something a bit like that.
so
Dying Fetus?


I doubt it..
Reply With Quote
  #146  
Old 2005-05-12, 16:03
Six_Feet_Under_420's Avatar
Six_Feet_Under_420 Six_Feet_Under_420 is offline
Post-whore
 
Join Date: Feb 2005
Location: Maastricht, Netherlands
Posts: 1,506
I doubt it is dying fetus also. I can't recall dying fetus using that kind of riff
__________________
.
.
.
.
.
+-+ .....::::: Alive to Live, Not to Believe....In a God that I cannot see :::::..... +-+
Reply With Quote
  #147  
Old 2005-05-12, 16:15
Necrolechery Necrolechery is offline
New Blood
 
Join Date: Apr 2005
Posts: 23
Quote:
Originally Posted by YJM04
standard tuning
this is an easy one

----------------12-10-7-----------------------
-------10-10/12--------8-8/10-10-10-15/10~--
-----7-----------------------------------------
-7/9-------------------------------------------
-----------------------------------------------
-----------------------------------------------

Steve Vai- For The Love Of God
I play it something like this
----------------12-10-------------------------
-------10-10/12------12---10/12--15----------
-----7------------------12-----------14-------
--7/9------------------------------------------
-----------------------------------------------
-----------------------------------------------
Reply With Quote
  #148  
Old 2005-05-12, 16:47
HELLBLASTER-666's Avatar
HELLBLASTER-666 HELLBLASTER-666 is offline
Post-whore
 
Join Date: Apr 2002
Location: Thessaloniki,greece
Posts: 1,175
Send a message via MSN to HELLBLASTER-666
Code:
RIFF 1 (play 2x) T=105 Guitars 1 & 2 : 12/8 C#||--------------------------------------------------| G#||--------------------------------------------------| E ||------------------------0h1p0---------------------| B ||3-----------5-----------------3-0-----------------| F#||1---4---5---3-------1-2-----------3-0---6---4---3-| C#||----2---3-------123-------------------4---3---2---| . . ... . . . . . . . . . |------------------------------------------------| |------------------------------------------------| |------------------------------------------------| |--------6-----------5-------3---4---------------| |--------4-----------3---3---1---2---3---4---5---| |33333333----22222222----1-----------1---2---3---| ........ ........ . . . 4/4 |--------------------------------|| |--------------------------------|| |------------------------------1-|| |--------------------------1-2---|| |----2-1-----3-2-----2-1-2-------|| |123-----234-----123-------------|| ... . . ... . . ... . . . . .


It's very easy but anyway
__________________
Burnin' and a-lootin' tonight
burnin' all pollution tonight
burnin' all illusion tonight

Reply With Quote
  #149  
Old 2005-05-12, 17:45
Necrolechery Necrolechery is offline
New Blood
 
Join Date: Apr 2005
Posts: 23
--------------------------------------------------------
--------------------------------------------------------
---------------11109-----------------------------------
----------1098-----------------------------------------
------987-----------------------------------------------
--876-----------------000-000-000-000-----------------



--------------------------------------------------------
--------------------------------------------------------
--------------------------------------------------------
-----3----4---567----3---4----567-------------------------
-----3----4---567----3---4----567-----------------------
--0001000200034500010002000345----------------------
Reply With Quote
  #150  
Old 2005-05-13, 05:20
johnmansley's Avatar
johnmansley johnmansley is offline
Schrodinger's Cat
Forum Leader
 
Join Date: Dec 2003
Location: Liverpool, England
Posts: 5,970
Send a message via MSN to johnmansley
Quote:
Originally Posted by HELLBLASTER-666
Code:
RIFF 1 (play 2x) T=105 Guitars 1 & 2 : 12/8 C#||--------------------------------------------------| G#||--------------------------------------------------| E ||------------------------0h1p0---------------------| B ||3-----------5-----------------3-0-----------------| F#||1---4---5---3-------1-2-----------3-0---6---4---3-| C#||----2---3-------123-------------------4---3---2---| . . ... . . . . . . . . . |------------------------------------------------| |------------------------------------------------| |------------------------------------------------| |--------6-----------5-------3---4---------------| |--------4-----------3---3---1---2---3---4---5---| |33333333----22222222----1-----------1---2---3---| ........ ........ . . . 4/4 |--------------------------------|| |--------------------------------|| |------------------------------1-|| |--------------------------1-2---|| |----2-1-----3-2-----2-1-2-------|| |123-----234-----123-------------|| ... . . ... . . ... . . . . .


It's very easy but anyway


PIERCED FROM WITHIN!!!!
__________________
Album of the day:

Deadhead Roses - Zastruga
Reply With Quote
  #151  
Old 2005-05-13, 06:28
HELLBLASTER-666's Avatar
HELLBLASTER-666 HELLBLASTER-666 is offline
Post-whore
 
Join Date: Apr 2002
Location: Thessaloniki,greece
Posts: 1,175
Send a message via MSN to HELLBLASTER-666
Quote:
Originally Posted by johnmansley
PIERCED FROM WITHIN!!!!

What a surprise!
__________________
Burnin' and a-lootin' tonight
burnin' all pollution tonight
burnin' all illusion tonight

Reply With Quote
  #152  
Old 2005-05-13, 06:49
Six_Feet_Under_420's Avatar
Six_Feet_Under_420 Six_Feet_Under_420 is offline
Post-whore
 
Join Date: Feb 2005
Location: Maastricht, Netherlands
Posts: 1,506
------------------------------------------------------------------
------------------------------------------------------------------
------------------------------------------------------------------
--------3-------------------------------3-------------------------
--2-----1---2---3---2---3-6---3-5-2-----1---2---3---2---3-6-6-5-6-
--0-0000--000-001-000-001-4-001-3-0-0000--000-001-000-001-4-4-3-4-


Easy one

In C# tuning
__________________
.
.
.
.
.
+-+ .....::::: Alive to Live, Not to Believe....In a God that I cannot see :::::..... +-+
Reply With Quote
  #153  
Old 2005-05-13, 07:05
The Doctor's Avatar
The Doctor The Doctor is offline
Denimwearinghillbilly
Forum Leader
 
Join Date: Jul 2002
Location: Bladel, Holland
Posts: 6,806
Send a message via Yahoo to The Doctor
Quote:
Originally Posted by Necrolechery
--------------------------------------------------------
--------------------------------------------------------
---------------11109-----------------------------------
----------1098-----------------------------------------
------987-----------------------------------------------
--876-----------------000-000-000-000-----------------



--------------------------------------------------------
--------------------------------------------------------
--------------------------------------------------------
-----3----4---567----3---4----567-------------------------
-----3----4---567----3---4----567-----------------------
--0001000200034500010002000345----------------------


MACABRE!
how about some coffee?

hahaha, classic
Reply With Quote
  #154  
Old 2005-05-13, 10:27
YJM04's Avatar
YJM04 YJM04 is offline
Post-whore
 
Join Date: Apr 2005
Location: nowhere,USA
Posts: 1,457
Quote:
Originally Posted by JoeYngVai
Chorus:
e----------------------------------------|
B----------------------------------------|
G------------------------------3---------|
D-------5--------7--------5----3---4-----|
A-------5--------7--------5----1---4-----|
E-0-0-0-3--0-0-0-5--0-0-0-3--------2-----|
pm----| pm----| pm----|

e----------------------------------------|
B----------------------------------------|
G-------------------------------3--------|
D-------5--------7--------5-----3--4--3--|
A-------5--------7--------5-----1--4--3--|
E-0-0-0-3--0-0-0-5--0-0-0-3-0-0----2--1--|
pm----| pm----| pm----| pm--|


Probably an easy one.


metallica for whom the bell tolls.time watches on.
Reply With Quote
  #155  
Old 2005-05-13, 10:28
YJM04's Avatar
YJM04 YJM04 is offline
Post-whore
 
Join Date: Apr 2005
Location: nowhere,USA
Posts: 1,457
[QUOTE=Necrolechery]Steve Vai- For The Love Of God
I play it something like this
----------------12-10-------------------------
-------10-10/12------12---10/12--15----------
-----7------------------12-----------14-------
--7/9------------------------------------------
-----------------------------------------------
-----------------------------------------------[/QUOTE
ur right. good job
Reply With Quote
  #156  
Old 2005-05-13, 10:31
YJM04's Avatar
YJM04 YJM04 is offline
Post-whore
 
Join Date: Apr 2005
Location: nowhere,USA
Posts: 1,457
this is one of my fav. songs can u guess it? hint. its all taps.
X2 X2
----------------------------
----12-----------14--------
--------------------14-----repeat
------12------10-----------
--9----------9-------------
-7-------------------------
Reply With Quote
  #157  
Old 2005-05-13, 10:59
guitariste's Avatar
guitariste guitariste is offline
Senior Metalhead
 
Join Date: May 2004
Location: Finland
Posts: 202
Quote:
Originally Posted by metal=life
hmmmmmm

OPEN D
|----15-14------------------------------------
|-17------17-15----17---17-15--------15-17---
|---------------16------------16-14-----------
|-----------------17----------------17----------
|----------------------------------------------
|-----------------------------------------------


grab your guitar and try that because its the way I play it. I couldn't find a good tab

that is Children of Bodom- Hate Me....
Reply With Quote
  #158  
Old 2005-05-13, 11:58
MoonRaven's Avatar
MoonRaven MoonRaven is offline
Lo, they do call to me...
 
Join Date: Aug 2003
Location: virginia beach, VA
Posts: 2,208
Send a message via AIM to MoonRaven Send a message via MSN to MoonRaven Send a message via Yahoo to MoonRaven
Quote:
Originally Posted by Six_Feet_Under_420
------------------------------------------------------------------
------------------------------------------------------------------
------------------------------------------------------------------
--------3-------------------------------3-------------------------
--2-----1---2---3---2---3-6---3-5-2-----1---2---3---2---3-6-6-5-6-
--0-0000--000-001-000-001-4-001-3-0-0000--000-001-000-001-4-4-3-4-


Easy one

In C# tuning

dying fetus - one shot, one kill, riff after solo section
__________________
Too grim to function

Last edited by MoonRaven : 2005-05-13 at 12:03.
Reply With Quote
  #159  
Old 2005-05-13, 12:09
Six_Feet_Under_420's Avatar
Six_Feet_Under_420 Six_Feet_Under_420 is offline
Post-whore
 
Join Date: Feb 2005
Location: Maastricht, Netherlands
Posts: 1,506
__________________
.
.
.
.
.
+-+ .....::::: Alive to Live, Not to Believe....In a God that I cannot see :::::..... +-+
Reply With Quote
  #160  
Old 2005-05-13, 16:11
younguitarist's Avatar
younguitarist younguitarist is offline
Post-whore
 
Join Date: Mar 2004
Location: San Antonio, TX
Posts: 2,037
I love that riff. Here's a good one..

Tuning : C standard

Code:
Gtr I PM------------------------------------------------------------| S S E E S S E E S S S S +S S S S S E S S S S S S E. 4x ||-----------------------------------|---------------------------------------|| ||o----------------------------------|--------------------------------------o|| ||-----------------------------------|---------------------------------------|| ||-----------------------------------|---------------------------------------|| ||o----------------------------------|-------3-3-3-3------5-5-5-5-5---------o|| ||--0-0-0-------0-0--0-------0-0-0-0-|-(0)-----------------------------------|| | | Gtr II | PM-------------------------------------------------------------------| | S S S S S S S S S S S S S S S S S S S S S S S S S S S S S S S S 4x ||-----------------------------------|---------------------------------------|| ||o-0-0-8-0-0-7-0-0-10-0-0-8-0-0-7-8-|--0--0-8-0-0-7-0-0-10-0-0-8-0-0--7-8--o|| ||-----------------------------------|---------------------------------------|| ||-----------------------------------|---------------------------------------|| ||o----------------------------------|--------------------------------------o|| ||-----------------------------------|---------------------------------------||
Reply With Quote
Reply


Thread Tools Search this Thread
Search this Thread:

Advanced Search
Rate This Thread
Rate This Thread:

Posting Rules
You may not post new threads
You may not post replies
You may not post attachments
You may not edit your posts

vB code is On
Smilies are On
[IMG] code is Off
HTML code is Off
Forum Jump



All times are GMT -5. The time now is 10:31.


========

Contact Us | Privacy Policy | Disclaimer
Copyright © 2001-2009 MetalTabs.com. All Rights Reserved.
Powered by vBulletin
Copyright ©2000 - 2009, Jelsoft Enterprises Ltd.