MetalTabs.com - your source for Metal tabs
Home Forum What's New Submit a Tab FAQ Links Contact Us Link to Us


Go Back   MetalTabs.com Forum > Musicians > Guitar Zone
User Name
Password


Reply
 
Thread Tools
  #121  
Old 2004-09-12, 20:41
TheDreadfulHoroscope TheDreadfulHoroscope is offline
Supreme Metalhead
 
Join Date: Aug 2004
Location: West Virginia
Posts: 744
Send a message via AIM to TheDreadfulHoroscope
that one sounds real familiar but dammit....
Reply With Quote
  #122  
Old 2004-09-12, 20:44
DeathCS's Avatar
DeathCS DeathCS is offline
Wasted Custom User title
 
Join Date: Feb 2004
Location: Minneapolis.
Posts: 5,002
Send a message via AIM to DeathCS Send a message via MSN to DeathCS
taking a wild guess...
Nile- Beneath eternal Oceans of sand?
I say that because when i saw the tab , that song came on.
__________________
This is my signature.
Reply With Quote
  #123  
Old 2004-09-12, 22:01
RUSSIANROULETTE's Avatar
RUSSIANROULETTE RUSSIANROULETTE is offline
Supreme Metalhead
 
Join Date: Dec 2002
Location: The womb of Satan's neighbor...?
Posts: 716
Nope, not Nile, It's not a deathmetal band
__________________
Is your head up your ass for the fucking warmth?
Silly faggot, dicks are for chicks.

THUNDERBREW

R.I.P
DIMEBAG DARRELL
Reply With Quote
  #124  
Old 2004-09-23, 07:41
HailAngelo HailAngelo is offline
New Blood
 
Join Date: Aug 2004
Location: Pits of Hell (Fairfax, Va)
Posts: 18
Send a message via AIM to HailAngelo
I got a classic!

|----------------------
|----------------------
|----------------------
|----------------------
|-----2-3-2------------
|-0-0--------0-2-3-2---

Its usually played with Wah on each note but you dont have to. Also, play it pretty slow.....
Reply With Quote
  #125  
Old 2004-09-23, 07:53
johnmansley's Avatar
johnmansley johnmansley is offline
Schrodinger's Cat
Forum Leader
 
Join Date: Dec 2003
Location: Liverpool, England
Posts: 5,975
Send a message via MSN to johnmansley
Looks like Electric Funeral by Black Sabbath.
__________________
Album of the day:

Red Sparowes - At the Soundless Dawn
Reply With Quote
  #126  
Old 2004-09-23, 08:20
Riggs's Avatar
Riggs Riggs is offline
Senior Metalhead
 
Join Date: Sep 2004
Location: Denton, Texas
Posts: 109
Send a message via AIM to Riggs
^I agree with what he said.

By the way if that is Black Sabbath- Electric Funeral it's:

|-----------------------
|-----------------------
|-----------------------
|-----------------------
|-----2h3p2------------
|-0-0--------0-2h3p2---
__________________
Riggs with Twiggs owns Niggs with Siggs

"Choices always were a problem for you.
What you need is someone strong to guide you.
Deaf and blind and dumb and born to follow,
what you need is someone strong to use you...
like me..." ~Maynard
Reply With Quote
  #127  
Old 2004-09-23, 14:43
metalpro metalpro is offline
Senior Metalhead
 
Join Date: Jul 2004
Location: minnesota
Posts: 331
Send a message via MSN to metalpro
Quote:
Originally Posted by powersofterror
haha, I have no idea about any of those....can anyone guess this?

|------------------------------------------------------------------
|------------------------------------------------------------------
|------------------------------------------------------------------
|-9-------9----9h11~--9---------------7-6--------------------------
|-7-----7---11------------9-----6-9-6------9-7---------------------
|-0-----------------------7-------------------5--------------------


that looks like something COB would do, but i dont know many bands.
__________________
R.I.P. Dime

scream when u feel the pain. i probly wont stop.
Reply With Quote
  #128  
Old 2004-09-23, 16:51
kin's Avatar
kin kin is offline
Senior Metalhead
 
Join Date: Aug 2004
Location: In The Clash Of Arms
Posts: 372
Send a message via AIM to kin
In the tuning of C.

Code:
|-------------------------------------------------------| |-------------------------------------------------------| |-------h-----5--------h----------h-------------h-------| |------5-7------7-5---5-7--------5-7--------5---5-7-----| |-3~-0-------0------7------3~-0------0-5-6b---7---------| |-------------------------------------------------------|
Reply With Quote
  #129  
Old 2004-09-23, 17:35
DeathCS's Avatar
DeathCS DeathCS is offline
Wasted Custom User title
 
Join Date: Feb 2004
Location: Minneapolis.
Posts: 5,002
Send a message via AIM to DeathCS Send a message via MSN to DeathCS
|----------------------------------------------------
|----------------------------------------------------
|----------------------------------------------------
|----------------------------------------------------
|----------8p7-------------7---------------7p5-------
|--0---0-0-------0---0-7-8---8-5-6-0---0-0-------0---

|----------------------------------------------------
|----------------------------------------------------
|----------------------------------------------------
|----------------------------------------------------
|--------5---------------7h8-------------7-----------
|--0-5-6---6-1-3-0---0-0-------0---0-7-8---8-4---0-0-
__________________
This is my signature.
Reply With Quote
  #130  
Old 2004-09-23, 20:23
powersofterror's Avatar
powersofterror powersofterror is offline
I am a tax on the world..
Forum Leader
 
Join Date: Mar 2002
Location: pizza with a shit on it!
Posts: 7,994
Quote:
Originally Posted by metalpro
that looks like something COB would do, but i dont know many bands.

Whoa I posted that a long time ago.....hmmm no it no where near CoB, it's Buckethead.
__________________
Man, I get real sweaty after I wack my dong. Yeah, cause I headbang while I do, and I can't really "Jump" (haha ) like VanHalen in a dorm room, so I just walk back and forth....haha a couple days ago I was jumping up and down on my bed, with my pants down and my roommate came in when I wasn't looking, hahaha.


This is my band's page
http://www.myspace.com/ferocitydentontx
Reply With Quote
  #131  
Old 2004-09-24, 01:49
Chris Rezendes's Avatar
Chris Rezendes Chris Rezendes is offline
Attorney at Bird Law
Forum Leader
 
Join Date: May 2002
Location: Alone here, with emptiness, eagles, and snow...
Posts: 3,567
Send a message via AIM to Chris Rezendes
I only read the first and last pages of this post (just wanted to point that out), and I have some comments. First off, Displacer's Tab site used to do this every month. Fuck if I know what the hell happened to that place, at one point it had more tabs than here, it doesn't even come close now. A couple years ago it was THE place to go for metal tabs. Obviously we have a new champion. Just felt like pointing that out, I've seen this before.

Secondly, it's going to be hard to play this game for most people because you are posting in the wrong font. You are just pasting the tab into your post. That doesn't work because the default font for this forum is multi-spaced, and you NEED a mono-spaced font (I prefer Courier New) to accurately read tab. You can get around that problem by clicking on the [Font] link above the post when you are writing.

For example, I would type in "FONT=Courier New" inside brackets [] and then I would paste in the piece of the tab. Then I would type in "FONT", again encased in brackets []. I hope that helps some of you.
Reply With Quote
  #132  
Old 2004-09-24, 14:42
metalpro metalpro is offline
Senior Metalhead
 
Join Date: Jul 2004
Location: minnesota
Posts: 331
Send a message via MSN to metalpro
Quote:
Originally Posted by powersofterror
Whoa I posted that a long time ago.....hmmm no it no where near CoB, it's Buckethead.


yes but i dont get on much, and like i said, i dont know many bands. i need to get out more.
__________________
R.I.P. Dime

scream when u feel the pain. i probly wont stop.
Reply With Quote
  #133  
Old 2004-09-25, 15:52
younguitarist's Avatar
younguitarist younguitarist is offline
Post-whore
 
Join Date: Mar 2004
Location: San Antonio, TX
Posts: 2,037
someone said that we should post audio clips or something like that.So heres one.

http://www.digitalsoundplanet.com/M...8_000021795.mp3

Me and my friend were bored.Nothing serious but o well.
Reply With Quote
  #134  
Old 2004-09-25, 20:16
DeathCS's Avatar
DeathCS DeathCS is offline
Wasted Custom User title
 
Join Date: Feb 2004
Location: Minneapolis.
Posts: 5,002
Send a message via AIM to DeathCS Send a message via MSN to DeathCS
Quote:
Originally Posted by younguitarist
someone said that we should post audio clips or something like that.So heres one.

http://www.digitalsoundplanet.com/M...8_000021795.mp3

Me and my friend were bored.Nothing serious but o well.

Hmmm..
Slayer- Raining Blood ????
__________________
This is my signature.
Reply With Quote
  #135  
Old 2004-09-25, 22:02
younguitarist's Avatar
younguitarist younguitarist is offline
Post-whore
 
Join Date: Mar 2004
Location: San Antonio, TX
Posts: 2,037
Quote:
Originally Posted by CANNIBALCORPSE
Hmmm..
Slayer- Raining Blood ????


Correct
Reply With Quote
  #136  
Old 2004-09-26, 06:11
Nihilist's Avatar
Nihilist Nihilist is offline
Dog farts
Alumni Staff
 
Join Date: Jun 2003
Posts: 5,006
Quote:
Originally Posted by ChrisRezendes
For example, I would type in "FONT=Courier New" inside brackets [] and then I would paste in the piece of the tab. Then I would type in "FONT", again encased in brackets []. I hope that helps some of you.

Or, use the [.code]tab here[/code] function. Obviously, remove the "."

Example:

Code:
|----------0----------------------0-------------| |-----0-1----1-----0---------0-1----1------3----| |-----------------------------------------------| |--2------------3---------2------------3/5------| |0---------------------0------------------------| |-----------------------------------------------|
Reply With Quote
  #137  
Old 2005-05-10, 08:56
HatecrewESP's Avatar
HatecrewESP HatecrewESP is offline
Metalhead
Banned
 
Join Date: Apr 2005
Location: hell
Posts: 82
Standard tuning
im sure you can call this classic


|---------------------------------------------------------------|
|---------------------------------------------------------------|
|---------------------------------------------------------------|
|---------------------------------------------------------------|
|----4-6-4-7-6----4-6-4-7-6---4-6-4-7-6-------4-6-4-7-6------|
|--7-------------7------------7---------------7----------------|

Next part
i think this pat may be to low but not for sure X 4
|---------------------------------------------------------------|
|--------------------5-5--------------------4-4-4-54-----------|
|----7-5-5--7-5-7-5-----7-4---3-3-5-3-5-3-----------7-5-------|
|---------------------------------------------------------------|
|---------------------------------------------------------------|
|---------------------------------------------------------------|


verse
|---------------------------------------------------------------|
|---------------------------------------------------------------|
|--4-6-7-9-7-6-4-6-4-2-6-2--4-6-7-9-7-6-4-7-6-2---------------|
|--2-4-5-7-5-4-2-4-2-0-4-0--2-4-5-7-5-4-2-5-4-0--------------|
|---------------------------------------------------------------|
|---------------------------------------------------------------|


|---------------------------------------------------------------|
|---------------------------------------------------------------|
|---------------------------------------------------------------|
|-2-4-5-7-6-4-2-6-4-----4------2-4-5-7-6-4-2--5-4------------|
|-0-2-3-5-3-2-0-3-2---5-2-7----0-2-3-5-3-2-0--3-2--5---------|
|----------------------3---3--------------------------3---------|
Reply With Quote
  #138  
Old 2005-05-10, 09:14
Amon rA's Avatar
Amon rA Amon rA is offline
Senior Metalhead
 
Join Date: Mar 2003
Posts: 472
Quote:
Originally Posted by CANNIBALCORPSE
|----------------------------------------------------
|----------------------------------------------------
|----------------------------------------------------
|----------------------------------------------------
|----------8p7-------------7---------------7p5-------
|--0---0-0-------0---0-7-8---8-5-6-0---0-0-------0---

|----------------------------------------------------
|----------------------------------------------------
|----------------------------------------------------
|----------------------------------------------------
|--------5---------------7h8-------------7-----------
|--0-5-6---6-1-3-0---0-0-------0---0-7-8---8-4---0-0-


most regular people would say........ but every street-wise son of a bitch knows.....
__________________
"The complexity of the penguins' lifestyle testifies to a Divine Creator," said one commentator on Christian Answers. "To think that natural selection or even the penguins themselves could come up with the idea to migrate miles and miles multiple times each year without their partner or their offspring is a bit insulting to my intellect. How great is our God!"
Reply With Quote
  #139  
Old 2005-05-10, 15:04
HatecrewESP's Avatar
HatecrewESP HatecrewESP is offline
Metalhead
Banned
 
Join Date: Apr 2005
Location: hell
Posts: 82
hmm i guess i tabbed a little too mutch
Reply With Quote
  #140  
Old 2005-05-11, 18:24
YJM04's Avatar
YJM04 YJM04 is offline
Post-whore
 
Join Date: Apr 2005
Location: nowhere,USA
Posts: 1,457
standard tuning
this is an easy one

----------------12-10-7-----------------------
-------10-10/12--------8-8/10-10-10-15/10~--
-----7-----------------------------------------
-7/9-------------------------------------------
-----------------------------------------------
-----------------------------------------------
Reply With Quote
Reply


Thread Tools

Posting Rules
You may not post new threads
You may not post replies
You may not post attachments
You may not edit your posts

vB code is On
Smilies are On
[IMG] code is Off
HTML code is Off
Forum Jump



All times are GMT -5. The time now is 06:11.


========

Contact Us | Privacy Policy | Disclaimer
Copyright © 2001-2009 MetalTabs.com. All Rights Reserved.
Powered by vBulletin
Copyright ©2000 - 2009, Jelsoft Enterprises Ltd.