MetalTabs.com - your source for Metal tabs
Home Forum What's New Submit a Tab FAQ Links Contact Us Link to Us


Go Back   MetalTabs.com Forum > Musicians > Guitar Zone
User Name
Password


Reply
 
Thread Tools Search this Thread Rate Thread
  #41  
Old 2004-02-16, 06:35
Enviedbynone Enviedbynone is offline
Metalhead
 
Join Date: Dec 2003
Location: Barrie Ontario
Posts: 76
|-------15-14-15--10-11-----------
|----13-------------------12---13~
|-12--------------------------------
|-----------------------------------
|-----------------------------------
|-----------------------------------


|--------15-14-15--10-11/17~--------
|----13------------------------------
|-12---------------------------------
|----------------------------------
|----------------------------------
|----------------------------------



this is somewhat easy to figure out, well assuming you have seen the movies
my apologies that its not from a real song
__________________
the only thing about death that scares me is if i keep living after I tried not to...
Reply With Quote
  #42  
Old 2004-02-16, 22:24
RUSSIANROULETTE's Avatar
RUSSIANROULETTE RUSSIANROULETTE is offline
Supreme Metalhead
 
Join Date: Dec 2002
Location: The womb of Satan's neighbor...?
Posts: 716
|---------------------------------------------------------------------------------------------|
|---------------------------------------------------------------------------------------------|
|---------------------------------------------------------------------------------------------|
|---------------------------------------------------------------------------------------------|
|-"8"--"7"-----------------------------------------"8"--"7"--------------------------------------|
|---*45*---*045*-"8"-*58*-"5"-75-"4"-"1"-*"0"*----*45*---*045*-"8"-*58*-57541-*11110*-*000*---|

Here's a good one. I've never seen this song tabbed out on the internet so you can't cheat. Hint: It's a tab I've been working on for some time now that I'm still yet to post.

" "= Tremolo picking
* *= Palm Mute

Tune to D
__________________
Is your head up your ass for the fucking warmth?
Silly faggot, dicks are for chicks.

THUNDERBREW

R.I.P
DIMEBAG DARRELL
Reply With Quote
  #43  
Old 2004-02-17, 04:02
johnmansley's Avatar
johnmansley johnmansley is offline
Schrodinger's Cat
Forum Leader
 
Join Date: Dec 2003
Location: Liverpool, England
Posts: 5,970
Send a message via MSN to johnmansley
^ *rubs eyes*
__________________
Album of the day:

Deadhead Roses - Zastruga
Reply With Quote
  #44  
Old 2004-02-19, 18:59
SpiritCrusher's Avatar
SpiritCrusher SpiritCrusher is offline
Senior Metalhead
 
Join Date: Jul 2003
Location: Montréal, QC
Posts: 470
Quote:
|---------------------------------------------------------------------------------------------|
|---------------------------------------------------------------------------------------------|
|---------------------------------------------------------------------------------------------|
|---------------------------------------------------------------------------------------------|
|-"8"--"7"-----------------------------------------"8"--"7"--------------------------------------|
|---*45*---*045*-"8"-*58*-"5"-75-"4"-"1"-*"0"*----*45*---*045*-"8"-*58*-57541-*11110*-*000*---|

Here's a good one. I've never seen this song tabbed out on the internet so you can't cheat. Hint: It's a tab I've been working on for some time now that I'm still yet to post.

" "= Tremolo picking
* *= Palm Mute

Tune to D


Decapitated - The Eye of Horus..... I think ?
Reply With Quote
  #45  
Old 2004-02-21, 14:44
RUSSIANROULETTE's Avatar
RUSSIANROULETTE RUSSIANROULETTE is offline
Supreme Metalhead
 
Join Date: Dec 2002
Location: The womb of Satan's neighbor...?
Posts: 716
Correct
__________________
Is your head up your ass for the fucking warmth?
Silly faggot, dicks are for chicks.

THUNDERBREW

R.I.P
DIMEBAG DARRELL
Reply With Quote
  #46  
Old 2004-02-21, 18:06
Undying_Hatred's Avatar
Undying_Hatred Undying_Hatred is offline
Post-whore
 
Join Date: Jul 2003
Location: Anchorage, AK
Posts: 1,002
Im awesome, Vader - Xeper
__________________
http://www.willowtip.com/home.aspx
Reply With Quote
  #47  
Old 2004-02-21, 20:50
BLS's Avatar
BLS BLS is offline
STUFFED ANIMAL ORGY
 
Join Date: Jul 2003
Location: Chicago
Posts: 8,705
Send a message via ICQ to BLS Send a message via AIM to BLS Send a message via Yahoo to BLS
Quote:
Originally Posted by johnmansley
I reckon this one is a difficult one. They play it on a 7-string tuned down half a step and with a clean tone:

|------0----------0---------0----------|
|-------0----------0---------0---------|
|----0---0------0---0-----0---0-----0-|
|---4-----4---4------4---4-----4---4--| Repeat
|--4---------4----------4---------4----|
|-2---------3----------2---------3-----|
|--------------------------------------|

(hint: they're Swedish)


Looks like they really need that 7 string
__________________
"Believe the word
I will unlock my door
And pass the cemetery gates"

"Dimebag" Darrell Lance Abbott
08/20/66 - 12/08/04

R.I.P.
Reply With Quote
  #48  
Old 2004-02-22, 03:56
Seve420's Avatar
Seve420 Seve420 is offline
Senior Metalhead
 
Join Date: Feb 2004
Location: Melbourne, Australia
Posts: 323
Quote:
Originally Posted by johnmansley
I reckon this one is a difficult one. They play it on a 7-string tuned down half a step and with a clean tone:

|------0----------0---------0----------|
|-------0----------0---------0---------|
|----0---0------0---0-----0---0-----0-|
|---4-----4---4------4---4-----4---4--| Repeat
|--4---------4----------4---------4----|
|-2---------3----------2---------3-----|
|--------------------------------------|

(hint: they're Swedish)


I'm not sure which song but I'd have to say the death metal lords, Meshuggah. Mainly because they are the only Swedish band that I know that play with a 7 string at Bb.
Reply With Quote
  #49  
Old 2004-02-22, 11:47
johnmansley's Avatar
johnmansley johnmansley is offline
Schrodinger's Cat
Forum Leader
 
Join Date: Dec 2003
Location: Liverpool, England
Posts: 5,970
Send a message via MSN to johnmansley
Quote:
Originally Posted by Seve420
I'm not sure which song but I'd have to say the death metal lords, Meshuggah. Mainly because they are the only Swedish band that I know that play with a 7 string at Bb.


Yep, it's Meshuggah. The song is Ritual from the None EP.

I was disappointed no-one got the other one I posted. Fight Fire With Fire by Metallica!!!
__________________
Album of the day:

Deadhead Roses - Zastruga
Reply With Quote
  #50  
Old 2004-02-22, 16:44
DEAD's Avatar
DEAD DEAD is offline
Post-whore
 
Join Date: Jan 2002
Location: Philadelphia
Posts: 1,399
Send a message via AIM to DEAD
Quote:
Originally Posted by CarnivorousWind
Here's a pretty easy one.

|------0-------------0-------------0------------------------|
|--------0-------------0-------------0----------------------|
|----------0-------------0-------------0--------------------|
|------------2-------------2-------------2------------------|
|--2--------------2-------------2------------7-8-8-7-5-3---|
|--0--------------0-------------0------------5-6-6-5-3-1---|


Freezing Moon by Mayhem

and the one Bestial Warrior posted is Jesus Saves by Slayer.

You need some rules like, you cant post a riff untill you guess one or you have like 500 riffs posted and 2 guesses.
__________________
No fear, nor fight
Comforting silent side
So free, through flight
Comforting silence
Reply With Quote
  #51  
Old 2004-02-22, 17:23
Undying_Hatred's Avatar
Undying_Hatred Undying_Hatred is offline
Post-whore
 
Join Date: Jul 2003
Location: Anchorage, AK
Posts: 1,002
im 2-0 w0rd
__________________
http://www.willowtip.com/home.aspx
Reply With Quote
  #52  
Old 2004-02-23, 10:50
BadStitching BadStitching is offline
New Blood
 
Join Date: May 2003
Posts: 4
Ok, here's a riff from a fairly new song, i don't have my guitar with me but i think it goes something like this:

Tuning: Eb play it fast(can't be arsed to get the time and tempo :P )
|-----------------------------------------------------
|-----------------------------------------------------
|---*--------------*----*--------------*--------------
|---2"p1"p0"-3"p2"p0"----2"p1"p0"-3"p2"p0"-------------
|-2--------------------2------------------3-2-3-4-6--
|-0--------------------0------------------1-0-1-2-4--

*with tremelo

hint(kinda): Motor company...
Reply With Quote
  #53  
Old 2004-02-23, 16:55
HELLBLASTER-666's Avatar
HELLBLASTER-666 HELLBLASTER-666 is offline
Post-whore
 
Join Date: Apr 2002
Location: Thessaloniki,greece
Posts: 1,175
Send a message via MSN to HELLBLASTER-666
I'm 3-0,and by the way the last one I posted
was Bolt-Thrower World Eater
__________________
Burnin' and a-lootin' tonight
burnin' all pollution tonight
burnin' all illusion tonight

Reply With Quote
  #54  
Old 2004-02-23, 18:57
mctriple mctriple is offline
Senior Metalhead
 
Join Date: Nov 2003
Location: Phil Campbell, AL
Posts: 493
Send a message via AIM to mctriple
aren't you guys really 2-30 and 3-30, since you only answer ones you know? i'm 0-30!
Reply With Quote
  #55  
Old 2004-02-29, 14:37
BestialWarrior's Avatar
BestialWarrior BestialWarrior is offline
Senior Metalhead
 
Join Date: Oct 2003
Location: Chicago,Il.
Posts: 367
Post

Let's see if you guys can guess this....It's one I'm working on and not too easy to play either......heheh.....

Tuning: Regular D.

|------------------------------------
|----T/P-T/P------T/P-T/P-----------
|9-0-8-0-8-0-9-0-8-0-8-0-9-0-------
|------------------------------------
|-----------------------------3/6-5-5
|-----------------------------1/4-3-3

|-----------------------------------||
|----T/P-T/P-----T/P--T/P----------||
|9-0-8-0-8-0-9-0-8-0-8-0-9--------||
|---------------------------,--,-,--,||
|---------------------------5-4-6-4||
|---------------------------3-2-4-2||



If any of you get this right, I'll have to tab a tune of your choice in either
Death metal or Black Metal, regardless of what is...
__________________
bestialson2003@yahoo.com

Last edited by BestialWarrior : 2004-03-01 at 11:43. Reason: adding some palm muting, tuning..
Reply With Quote
  #56  
Old 2004-02-29, 20:27
Drag the Waters's Avatar
Drag the Waters Drag the Waters is offline
Senior Metalhead
 
Join Date: Aug 2003
Location: Earth v.6.9
Posts: 355
Send a message via AIM to Drag the Waters
Quote:
Originally Posted by BadStitching
Ok, here's a riff from a fairly new song, i don't have my guitar with me but i think it goes something like this:

Tuning: Eb play it fast(can't be arsed to get the time and tempo :P )
|-----------------------------------------------------
|-----------------------------------------------------
|---*--------------*----*--------------*--------------
|---2"p1"p0"-3"p2"p0"----2"p1"p0"-3"p2"p0"-------------
|-2--------------------2------------------3-2-3-4-6--
|-0--------------------0------------------1-0-1-2-4--

*with tremelo

hint(kinda): Motor company...


motor company? dont tell me this tab is a Chevelle song..
__________________
............_ )).........................
........_( . ,,)_.......................
......(______)......................
.......| ____ |........................
.____|___|________........
.|.........................|.|....|.\........
.|......ice-cream....|.|__|..\___
.|.........................|..............*|
.|_.....___________.....__.o|
....(...)....~.~~.>--<o.(...).......
Reply With Quote
  #57  
Old 2004-03-01, 00:23
Undying_Hatred's Avatar
Undying_Hatred Undying_Hatred is offline
Post-whore
 
Join Date: Jul 2003
Location: Anchorage, AK
Posts: 1,002
no we're 2-0 and 3-0 because no one can guess our shit

-----------------------------------
-------------------------------------
-4-4-4-4-4-4-4-4-4~--------------------------
-0-0-0-0-0-0-0-0-2~---------------------------
-2-2-2-2-2-2-0-0-2~--------------------------
-3-3-3-3-3-3-2-2-0~--------------------------
__________________
http://www.willowtip.com/home.aspx
Reply With Quote
  #58  
Old 2004-03-01, 17:42
MorbidGuitar's Avatar
MorbidGuitar MorbidGuitar is offline
Post-whore
 
Join Date: Jan 2004
Location: The United Republic of Hell
Posts: 1,171
HOW ABOUT AT LEAST GIVING US A F**KING CLUE SUCH AS THE BAND NAME OR SOMETHING SO WE HAVE SOME IDEA WHERE TO EVEN START.
Reply With Quote
  #59  
Old 2004-03-01, 17:43
CarnivorousWind CarnivorousWind is offline
Senior Metalhead
 
Join Date: Mar 2003
Location: Darkest Depths of Hell
Posts: 474
Send a message via AIM to CarnivorousWind Send a message via MSN to CarnivorousWind Send a message via Yahoo to CarnivorousWind
That's the fun part dumbass guessing without hints.
__________________
Rush 30th Anniversary Tour 0wns y0u!
Reply With Quote
  #60  
Old 2004-03-01, 17:50
MorbidGuitar's Avatar
MorbidGuitar MorbidGuitar is offline
Post-whore
 
Join Date: Jan 2004
Location: The United Republic of Hell
Posts: 1,171
(Hint:AMERICAN DEATH METAL, should be easy enough to firgure out)

-------------------------------------------------
-------------------------------------------------
-------------------------------------------------
-222200----5533----------------------------------
-------4455----553311001122223333335533----------
---------------------------------------7755332210
(LEAD GUITAR)

Last edited by guitarenvy : 2004-03-01 at 17:54.
Reply With Quote
Reply


Thread Tools Search this Thread
Search this Thread:

Advanced Search
Rate This Thread
Rate This Thread:

Posting Rules
You may not post new threads
You may not post replies
You may not post attachments
You may not edit your posts

vB code is On
Smilies are On
[IMG] code is Off
HTML code is Off
Forum Jump



All times are GMT -5. The time now is 10:07.


========

Contact Us | Privacy Policy | Disclaimer
Copyright © 2001-2009 MetalTabs.com. All Rights Reserved.
Powered by vBulletin
Copyright ©2000 - 2009, Jelsoft Enterprises Ltd.