MetalTabs.com - your source for Metal tabs
Home Forum What's New Submit a Tab FAQ Links Contact Us Link to Us


Go Back   MetalTabs.com Forum > Musicians > Guitar Zone
User Name
Password


Reply
 
Thread Tools Search this Thread Rate Thread
  #21  
Old 2004-02-14, 11:36
johnmansley's Avatar
johnmansley johnmansley is offline
Schrodinger's Cat
Forum Leader
 
Join Date: Dec 2003
Location: Liverpool, England
Posts: 5,970
Send a message via MSN to johnmansley
Quote:
Originally Posted by BestialWarrior
Let's see if you guys know this one. It's old, very popular...

Tune down a half step= E flat..
Palm mute on Open E..
|------------------------------|
|----------------------------T-|
|---------------------------(3)|
|----1--1------1--1---4\3-1-2-|
|----1--1------1--1---2\1-----|
|0-0--0---0-0---0---0---------|


continued..
|----------------------------||
|----------------------------||
|----------------------------||
|----1---1----1-4\3-----4\3-||
|----1---1----1-2\1-4\3-2\1-||
|0-0---0--0-0-------2\1-----||




Jesus Saves - Slayer. I love that song.
__________________
Album of the day:

Deadhead Roses - Zastruga
Reply With Quote
  #22  
Old 2004-02-14, 12:51
Drag the Waters's Avatar
Drag the Waters Drag the Waters is offline
Senior Metalhead
 
Join Date: Aug 2003
Location: Earth v.6.9
Posts: 355
Send a message via AIM to Drag the Waters
Quote:
Originally Posted by johnmansley
Spot on!

Here's a classic in standard that you should all get:

|--------------------------------------------------|
|--------------------------------------------------|
|--------------------------------------------------|
|--------------------------------------------------|
|-5----------4----------5-------4------4----------|
|-3-0000000-2-0000000-3-0000-2-0000-2-0000000-|

|--------------------------------------------------|
|--------------------------------------------------|
|--------------------------------------------------|
|--------------------------------------------------|
|-5----------4----------5-------4------3----------|
|-3-0000000-2-0000000-3-0000-2-0000-1-0000000-|

Note: PM the 0's


I could be wrong since you said it was a classic, but it sounds like This Graveyard Earth - Six Feet Under
__________________
............_ )).........................
........_( . ,,)_.......................
......(______)......................
.......| ____ |........................
.____|___|________........
.|.........................|.|....|.\........
.|......ice-cream....|.|__|..\___
.|.........................|..............*|
.|_.....___________.....__.o|
....(...)....~.~~.>--<o.(...).......
Reply With Quote
  #23  
Old 2004-02-14, 12:59
metal=life's Avatar
metal=life metal=life is offline
Post-whore
 
Join Date: Jul 2002
Location: pretty damn close to Cephalic Carnage.
Posts: 3,648
Send a message via Yahoo to metal=life
hmmmmmm

OPEN D
|----15-14------------------------------------
|-17------17-15----17---17-15--------15-17---
|---------------16------------16-14-----------
|-----------------17----------------17----------
|----------------------------------------------
|-----------------------------------------------


grab your guitar and try that because its the way I play it. I couldn't find a good tab
__________________
I swear to Drunk I'm not god
---------------------------------
CEPHALIC FUCKING CARNAGE


------D---
------E---
------A---
---METAL
------H---

"One day we all will die, a cliched fact of life."
Pantera - I'm Broken
Reply With Quote
  #24  
Old 2004-02-14, 13:02
johnmansley's Avatar
johnmansley johnmansley is offline
Schrodinger's Cat
Forum Leader
 
Join Date: Dec 2003
Location: Liverpool, England
Posts: 5,970
Send a message via MSN to johnmansley
Quote:
Originally Posted by Drag the Waters
I could be wrong since you said it was a classic, but it sounds like This Graveyard Earth - Six Feet Under


It's not SFU...
__________________
Album of the day:

Deadhead Roses - Zastruga
Reply With Quote
  #25  
Old 2004-02-14, 15:50
HELLBLASTER-666's Avatar
HELLBLASTER-666 HELLBLASTER-666 is offline
Post-whore
 
Join Date: Apr 2002
Location: Thessaloniki,greece
Posts: 1,175
Send a message via MSN to HELLBLASTER-666
Quote:
Originally Posted by SpiritCrusher
What a nice game



it would be Master of Puppets intro but played differently ? (the first chord is a regular E5 i think)

How about this one (tuned to D):

|---------------------------------------------------------|
|---------------------------------------------------------|
|---------------------------------------------------------|
|---------------------------------------------------------|
|-6------6------6------7-------6------6------5-----7-----|
|---444----444----4-5----5-4----444----333----4-5---5-4-|
. . . . . . . . . . . .

(hint : if you're familiar with one of the greatest bands ever, this should be easy )



Death-Suicide Machine

Quote:
Originally Posted by CarnivorousWind
Here's a pretty easy one.

|------0-------------0-------------0------------------------|
|--------0-------------0-------------0----------------------|
|----------0-------------0-------------0--------------------|
|------------2-------------2-------------2------------------|
|--2--------------2-------------2------------7-8-8-7-5-3---|
|--0--------------0-------------0------------5-6-6-5-3-1---|


I think it's Mayhem-Freezing Moon but the tab is a little wrong

Try this one(quite easy)
|------------------------------------
|------------------------------------
|------------------------------------
|-----6-8-9-8-6---------6/8-6-5-6-5
|-4-6-4-6-7-6-4----4-6-4/6-4-3-4-3
|6-----------------6----------------

single notes trem picked and 6-4,8-6,5-3 powerchords palm muted
__________________
Burnin' and a-lootin' tonight
burnin' all pollution tonight
burnin' all illusion tonight


Last edited by HELLBLASTER-666 : 2004-02-14 at 16:41.
Reply With Quote
  #26  
Old 2004-02-14, 16:21
Undying_Hatred's Avatar
Undying_Hatred Undying_Hatred is offline
Post-whore
 
Join Date: Jul 2003
Location: Anchorage, AK
Posts: 1,002
I dont know if any of you will get this


|----------------------------------------------------
|---------------------------------------------------
|--------------------------------------12-9h12^-------------
|------8-7-------------------8-7------------------
|-8h10-----8-10-8-10~-8h10-----8~-----------------
|-------------------------------------------------
__________________
http://www.willowtip.com/home.aspx
Reply With Quote
  #27  
Old 2004-02-14, 16:59
daggerfall daggerfall is offline
Senior Metalhead
 
Join Date: Feb 2003
Posts: 387
Quote:
Originally Posted by CarnivorousWind
Here's a pretty easy one.

|------0-------------0-------------0------------------------|
|--------0-------------0-------------0----------------------|
|----------0-------------0-------------0--------------------|
|------------0-------------0-------------0------------------|
|--2--------------2-------------2------------7-8-8-7-5-3---|
|--0--------------0-------------0------------5-6-6-5-3-1---|


When it's cold.., and when it's dark... The Freezing Moon can obsess you!

Edit:
That other guy managed to post before me... I corrected the tab by the way...
__________________
Quote:
Originally Posted by deMANUfacture
Avril lavigne - sk8ter boi


Last edited by daggerfall : 2004-02-14 at 17:01.
Reply With Quote
  #28  
Old 2004-02-14, 18:18
CarnivorousWind CarnivorousWind is offline
Senior Metalhead
 
Join Date: Mar 2003
Location: Darkest Depths of Hell
Posts: 474
Send a message via AIM to CarnivorousWind Send a message via MSN to CarnivorousWind Send a message via Yahoo to CarnivorousWind
Yea it's freezing moon. My tab says it's 0 0 0 2 not all 0's.
__________________
Rush 30th Anniversary Tour 0wns y0u!

Last edited by CarnivorousWind : 2004-02-14 at 18:20.
Reply With Quote
  #29  
Old 2004-02-14, 18:41
johnmansley's Avatar
johnmansley johnmansley is offline
Schrodinger's Cat
Forum Leader
 
Join Date: Dec 2003
Location: Liverpool, England
Posts: 5,970
Send a message via MSN to johnmansley
I reckon this one is a difficult one. They play it on a 7-string tuned down half a step and with a clean tone:

|------0----------0---------0----------|
|-------0----------0---------0---------|
|----0---0------0---0-----0---0-----0-|
|---4-----4---4------4---4-----4---4--| Repeat
|--4---------4----------4---------4----|
|-2---------3----------2---------3-----|
|--------------------------------------|

(hint: they're Swedish)
__________________
Album of the day:

Deadhead Roses - Zastruga

Last edited by johnmansley : 2004-02-14 at 18:43.
Reply With Quote
  #30  
Old 2004-02-14, 20:05
SpiritCrusher's Avatar
SpiritCrusher SpiritCrusher is offline
Senior Metalhead
 
Join Date: Jul 2003
Location: Montréal, QC
Posts: 470
Guess this one :

(play this 3 times)
||--------------------------------||
||--------------------------------||
||--------------------------------||
||----------6-------4-------4---4-||
||7p4---4---4---4---2-----0-2-0-2-||
||----0-2-0---0-2-0---0h2---------||
(p.m. on every 0)

and then this :
||--------------------------------------------||
||--------------------------------------------||
||--------------------------------------------||
||4h7p4p0-4h7p4p0-4h7p4-5h8p5p0-5h8p5p0-5h8p5-||
||--------------------------------------------||
||--------------------------------------------||


tip : theyre brutal grind/death

Last edited by SpiritCrusher : 2004-02-14 at 20:09.
Reply With Quote
  #31  
Old 2004-02-15, 09:11
Agent-Orange's Avatar
Agent-Orange Agent-Orange is offline
Post-whore
 
Join Date: Jun 2003
Location: Australia
Posts: 1,226
Quote:
Originally Posted by CarnivorousWind
Here's a pretty easy one.

|------0-------------0-------------0------------------------|
|--------0-------------0-------------0----------------------|
|----------0-------------0-------------0--------------------|
|------------2-------------2-------------2------------------|
|--2--------------2-------------2------------7-8-8-7-5-3---|
|--0--------------0-------------0------------5-6-6-5-3-1---|


When I first saw it I thought it was a fucked up version of Impaled Northern Moonforest - Return Of The Necrowizard.
Reply With Quote
  #32  
Old 2004-02-15, 12:53
brainsforbreakfast's Avatar
brainsforbreakfast brainsforbreakfast is offline
El Diablo sin pantalones
 
Join Date: Oct 2003
Location: Yggdrassyl
Posts: 4,321
Send a message via MSN to brainsforbreakfast
This will sound familiar...


E|---------------------
B|---------------------
G|---------------------
D|-9--------9----------
A|-7---8~--7-----8~--
E|-0-00-----0-000-----
.. ...
__________________
Quote:
Originally Posted by Darko
Quote:
Originally Posted by Requiem
Why would you sig that?
Why not? Why would you sig me saying that I hate you? I was serious there, too.


I'm in despair! The internet has left me in despair!
Reply With Quote
  #33  
Old 2004-02-15, 13:18
SpiritCrusher's Avatar
SpiritCrusher SpiritCrusher is offline
Senior Metalhead
 
Join Date: Jul 2003
Location: Montréal, QC
Posts: 470
Death - Symbolic
Reply With Quote
  #34  
Old 2004-02-15, 13:34
brainsforbreakfast's Avatar
brainsforbreakfast brainsforbreakfast is offline
El Diablo sin pantalones
 
Join Date: Oct 2003
Location: Yggdrassyl
Posts: 4,321
Send a message via MSN to brainsforbreakfast
Quote:
Originally Posted by SpiritCrusher
Death - Symbolic


The winner, its you!
__________________
Quote:
Originally Posted by Darko
Quote:
Originally Posted by Requiem
Why would you sig that?
Why not? Why would you sig me saying that I hate you? I was serious there, too.


I'm in despair! The internet has left me in despair!
Reply With Quote
  #35  
Old 2004-02-15, 15:56
HELLBLASTER-666's Avatar
HELLBLASTER-666 HELLBLASTER-666 is offline
Post-whore
 
Join Date: Apr 2002
Location: Thessaloniki,greece
Posts: 1,175
Send a message via MSN to HELLBLASTER-666
Quote:
Originally Posted by SpiritCrusher
Guess this one :

(play this 3 times)
||--------------------------------||
||--------------------------------||
||--------------------------------||
||----------6-------4-------4---4-||
||7p4---4---4---4---2-----0-2-0-2-||
||----0-2-0---0-2-0---0h2---------||
(p.m. on every 0)

and then this :
||--------------------------------------------||
||--------------------------------------------||
||--------------------------------------------||
||4h7p4p0-4h7p4p0-4h7p4-5h8p5p0-5h8p5p0-5h8p5-||
||--------------------------------------------||
||--------------------------------------------||


tip : theyre brutal grind/death


I'm not totaly sure but is it Dying Fetus-Killing On Adrenaline?
__________________
Burnin' and a-lootin' tonight
burnin' all pollution tonight
burnin' all illusion tonight

Reply With Quote
  #36  
Old 2004-02-15, 15:59
SpiritCrusher's Avatar
SpiritCrusher SpiritCrusher is offline
Senior Metalhead
 
Join Date: Jul 2003
Location: Montréal, QC
Posts: 470
Yes it is!
Reply With Quote
  #37  
Old 2004-02-15, 18:41
Undying_Hatred's Avatar
Undying_Hatred Undying_Hatred is offline
Post-whore
 
Join Date: Jul 2003
Location: Anchorage, AK
Posts: 1,002
how about only the person who guess's the tab posts the next one
The last one I posted was Children of Bodem - Dont stop at the top

about 140
|------------------------------------------------------------------
|-----------------------------------------------------------------
|---------------------------------------------------------------------
|-----------------------------------------------------------------
|-----------------5-7-8------------------5-7-8--8---------------------
|-000--0000--000-3-5-6--000-0000-000--3-5-6--6----------------------
__________________
http://www.willowtip.com/home.aspx

Last edited by Undying_Hatred : 2004-02-15 at 18:45.
Reply With Quote
  #38  
Old 2004-02-16, 01:04
Argos Argos is offline
Metalhead
 
Join Date: Sep 2002
Posts: 79
Quote:
Originally Posted by metal=life
you guys better know this one........

Or try this arpeggio..(for the shredders)

|-----5--------5/8h12p8----------8/12h16p12--------------8/20~--
|----5-5----5-5--------10------10----------13----------10 ------
|---5---5----5-----------9-----9-------------12/9------9----------
|--7-----7----------------10-10------------------10--10----------
|-7-------7-----------------12----------------------12------------
|8------------------------------------------------------------------


That wouldn't be a Becker tune would it?
Reply With Quote
  #39  
Old 2004-02-16, 01:14
metal=life's Avatar
metal=life metal=life is offline
Post-whore
 
Join Date: Jul 2002
Location: pretty damn close to Cephalic Carnage.
Posts: 3,648
Send a message via Yahoo to metal=life
yeah Cacophony Speed Metal Symphony


good job
__________________
I swear to Drunk I'm not god
---------------------------------
CEPHALIC FUCKING CARNAGE


------D---
------E---
------A---
---METAL
------H---

"One day we all will die, a cliched fact of life."
Pantera - I'm Broken
Reply With Quote
  #40  
Old 2004-02-16, 04:50
HELLBLASTER-666's Avatar
HELLBLASTER-666 HELLBLASTER-666 is offline
Post-whore
 
Join Date: Apr 2002
Location: Thessaloniki,greece
Posts: 1,175
Send a message via MSN to HELLBLASTER-666
Since noone found it,the one I posted
was Morbid Angel-God Of Our Own Divinity.

This is easier
|-------------------------------------------
|-------------------------------------------
|-------------------------------------------
|-------------------9/10--10/12--12/14--10/12\10-10\9--9
|-------------------7/8--8/10--10/12-- 8/10\8- 8\7--7
|0-0-0-0-0-0-0-0-0----0----- 0------ 0----------- 0

pm all the 0's
tip:english death metal band(basically now all you have to do
is find which song)
__________________
Burnin' and a-lootin' tonight
burnin' all pollution tonight
burnin' all illusion tonight

Reply With Quote
Reply


Thread Tools Search this Thread
Search this Thread:

Advanced Search
Rate This Thread
Rate This Thread:

Posting Rules
You may not post new threads
You may not post replies
You may not post attachments
You may not edit your posts

vB code is On
Smilies are On
[IMG] code is Off
HTML code is Off
Forum Jump



All times are GMT -5. The time now is 18:03.


========

Contact Us | Privacy Policy | Disclaimer
Copyright © 2001-2009 MetalTabs.com. All Rights Reserved.
Powered by vBulletin
Copyright ©2000 - 2009, Jelsoft Enterprises Ltd.