MetalTabs.com - your source for Metal tabs
Home Forum What's New Submit a Tab FAQ Links Contact Us Link to Us


Go Back   MetalTabs.com Forum > Tabs > Tab Questions & Requests
User Name
Password


Reply
 
Thread Tools Search this Thread Rating: Thread Rating: 1 votes, 5.00 average.
  #1  
Old 2003-12-29, 16:55
Vidar Vidar is offline
New Blood
 
Join Date: Dec 2003
Location: Washington, USA
Posts: 5
Send a message via AIM to Vidar
Request: Dance of December Souls (Katatonia) tabs

After months of searching on the net, I have realized that the only DODS tabs out there are Elohim Meth and the Jhva version of Without God. The guitar work on DODS is pretty simplistic, like they take a riff and repeat it 16 times, and it sounds much easier to tab and play than their For Funerals to Come and Brave Murder Day. So I really wonder why nobody has tabed out DODS.

Specifically, I would love to see Gateways of Bereavement, In Silence Enshrined, and Tomb of Insomnia.

Anybody with me on this?
Reply With Quote
  #2  
Old 2004-01-17, 15:45
Vidar Vidar is offline
New Blood
 
Join Date: Dec 2003
Location: Washington, USA
Posts: 5
Send a message via AIM to Vidar
Well, if anyone is interested, here's what I have been able to figure out from "In Silence Enshrined".
Code:
Regular Tuning, Gallop-rhythm. From 0:59 to 1:52 E|----------------------------------------- B|----------------------------------------- G|----------------------------------------- D|----------------------------------------- A|--7--7-7-9-10--10-10-9-5--5-5-9-7--7-7--- E|--5--5-5-7-8---8--8--7-3--3-3-7-5--5-5---


It repeats, but every other time, instead of going down to the g power cord, it goes up to some weird thing I can't make out. Somebody must be interested in getting these tabbed out.
Reply With Quote
  #3  
Old 2004-01-23, 11:23
Illuminati's Avatar
Illuminati Illuminati is offline
New Blood
 
Join Date: Jan 2004
Location: México city
Posts: 6
Send a message via MSN to Illuminati Send a message via Yahoo to Illuminati
Thumbs up in silince enshrined bridge/solo

Hey man my name is Iván i'm from México city i like katatonia i mean the old one not the new one instead of the new one is October tide there is lord jonas renkse. .So you want in silence enshrined ok well i figured out the solo bridge and i am tryin the first riiff i'm not sure of that one so i will not put it but i will put the bridge/solo i figured out hope you like it and hope it helps you (IT STARTS AT 2:50)
STANDARD TUNING E,A,D,G,B,E,
---------------------------------------------
---------------------------------------------
-----------------------------------------7---
---7--9--10--9--7-------7--9--10--9--7-----
-7-----------------7--7----------------------
--------------------------------------------- x4
THEN I THINK THIS I'M NOT SURE (3:14)
--------------------------------------------
--------------------------------------------
-----9--10--9--7------10--9--7--10--9--5--
-7-----------------7------------------------
---------------------------------------------
---------------------------------------------x4
finally (3:33) [with a little change in the second repeat you will figure it out]
---------------------------------------------
---------------------------------------------
-----------------------------------------7---
---7--9--10--9--7-------7--9--10--9--7-----
-7-----------------7--7----------------------
--------------------------------------------- x4
that's it hope we can figure all the song together help me it's easy but it needs time so i don't kno if you want me to help you findin it out check my msn and maybe we can figure out more
__________________
fi, my name is Iván am from mexico city i love my guitar a yamaha drop 6 i have 3 more guitars but that's my favourite one contact me and we can manage to find figure out some hard tabs
Reply With Quote
  #4  
Old 2004-01-23, 14:21
Illuminati's Avatar
Illuminati Illuminati is offline
New Blood
 
Join Date: Jan 2004
Location: México city
Posts: 6
Send a message via MSN to Illuminati Send a message via Yahoo to Illuminati
Lightbulb

i think i figured out completely the riff a (intro) so check it out it sounds good to me and i added your riff it sounds good to me too i still miss two riffs let me check them out

STANDARD TUNING E,A,D,G,B,E,


Riff A From 0:00 to 0:59
E|---------------------------------
B|---------------------------------
G|---------------------------------
D|--------3-----9--7--9--10--7--7-
A|-2---7---------------------------
E|-0------------------------------- x6


Riff B From 0:59 to 1:52
E|-------------------------------------------
B|-------------------------------------------
G|-------------------------------------------
D|-------------------------------------------
A|--7--7-7-9-10--10-10-9-5--5-5-9-7--7-7---
E|--5--5-5-7-8---8--8--7-3--3-3-7-5--5-5--- x6


Riff A x6 from 1:53 to 2:49


Riff C From 2:50 to 3:14
E|----------------------------------------------
B|----------------------------------------------
G|-----------------------------------------7----
D|---7--9--10--9--7-------7--9--10--9--7------
A|-7-----------------7--7-----------------------
E|---------------------------------------------- x4

THEN I THINK THIS I'M NOT SURE From 3:14 to 3:33
Riff c'
E|--------------------------------------------
B|--------------------------------------------
G|-----9--10--9--7------10--9--7--10--9--5--
D|-7-----------------7------------------------
A|---------------------------------------------
E|--------------------------------------------- x4

Riff C x4 From 3:33 to 3:51 [with a little change in the second repeat you will figure it out]



i still miss two riffs the songs has a lot of variations between the same riffs some time it passes to the lower
string from you were at the beginning
__________________
fi, my name is Iván am from mexico city i love my guitar a yamaha drop 6 i have 3 more guitars but that's my favourite one contact me and we can manage to find figure out some hard tabs

Last edited by Illuminati : 2004-01-23 at 14:28.
Reply With Quote
  #5  
Old 2004-01-24, 13:34
Vidar Vidar is offline
New Blood
 
Join Date: Dec 2003
Location: Washington, USA
Posts: 5
Send a message via AIM to Vidar
Great work, dude. I really couldn't help out much though as I'm pretty bad at tabbing. The riff I was able to figure out I just stumbeled on by accident.

What you have though sounds accurate to my ear. Thanks a bunch.
Reply With Quote
  #6  
Old 2004-01-24, 13:47
Illuminati's Avatar
Illuminati Illuminati is offline
New Blood
 
Join Date: Jan 2004
Location: México city
Posts: 6
Send a message via MSN to Illuminati Send a message via Yahoo to Illuminati
Thumbs up i'm glad you like it

Well you made me tabb that song i was trying too but i was like kinda lazy to do it so i didn't then i saw your post and i sadi well let's check it out so let me finish the song i still miss 2 riffs and they are hard when i finish it come here and check i will put them here and if i figure out some mistakes that maybe i have i will change them too

__________________
fi, my name is Iván am from mexico city i love my guitar a yamaha drop 6 i have 3 more guitars but that's my favourite one contact me and we can manage to find figure out some hard tabs
Reply With Quote
  #7  
Old 2004-01-28, 00:31
Illuminati's Avatar
Illuminati Illuminati is offline
New Blood
 
Join Date: Jan 2004
Location: México city
Posts: 6
Send a message via MSN to Illuminati Send a message via Yahoo to Illuminati
Exclamation In silence Enshrined Tab finished

That's it man here you go like it and well if something is wrong pease contact me i updated some notes cheers


in silence enshrined
transcribed by Illuminati SS_Reinhard_Heydrich@hotmail.com

STANDARD TUNING E,A,D,G,B,E,


Riff A From (begin) 0:00 to 0:59
E|--------------------------------
B|--------------------------------
G|--------------------------------
D|-------------9--7--9--10--7--7--
A|-2---7--8-----------------------
E|-0------------------------------ x6


Riff B From 0:59 to 1:52
E|-----------------------------------------
B|-----------------------------------------
G|-----------------------------------------
D|-----------------------------------------
A|--7--7-7-9-10--10-10-9-5--5-5-9-7--7-7---
E|--5--5-5-7-8---8--8--7-3--3-3-7-5--5-5--- x6


Riff A x6 From 1:53 to 2:49


Riff C From 2:50 to 3:14
E|--------------------------------------------
B|--------------------------------------------
G|-----------------------------------------7--
D|---7--9--10--9--7-------7--9--10--9--7------
A|-7-----------------7--7---------------------
E|-------------------------------------------- x4

THEN I THINK THIS I'M NOT SURE From 3:14 to 3:33
Riff c'
E|------------------------------------------
B|------------------------------------------
G|-----9--10--9--7------10--9--7--10--9--5--
D|-7-----------------7----------------------
A|------------------------------------------
E|------------------------------------------ x4

Riff C x4 From 3:33 to 3:51 (with a little change in the second repeat you will figure it out)

Riff D From 3:52 to 4:04
E|------------------------------------------------------------------------
B|-----------------------------------------------------------------------
G|-9/////10/////7/////9/////5/////7/////5--4--2--9--10--7--9--5--7--5--4--2-
D|------------------------------------------------------------------------
A|------------------------------------------------------------------------
E|----------------------------------------------------------------------x2
pm . . . . . . . . .

Riff D'From 4:05 to 4:30
E|------------------------------------------------------------------------
B|------------------------------------------------------------------------
G|9-10-7-9-5-7-5-4-2-9-10-7-9-5-7-5-4-2-9-10-7-9-5-7-5-4-2-9-10-7-9-5-7-5-4-2-
D|------------------------------------------------------------------------
A|------------------------------------------------------------------------
E|----------------------------------------------------------------------x2

Riff E From 4:31 to 4:55
E|------------------------------------------------------------------------
B|------------------------------------------------------------------------
G|------------------------------------------------------------------------
D|-7-7--7-7-7-7--7-7-7-7--7-7--9-10--3-3--3-3-3-3--3-3-3-3--3-3--9-10---9-9--9-9-9-9--9-9-9-9--9-9--9-10--5-5--5-5-5-5--5-5-5-5--5-5--9-7-5-3-
A|------------------------------------------------------------------------
E|----------------------------------------------------------------------x2

Riff D' x2 from 4:56 to 5:21

Riff A x6 from 5:22 to 6:31 (end)

That's it pretty cool song very very sad and easy to play (by the way sorry about riff D, d' and E but the tabulation is wrong in this page sorry just copy and paste it to your note pad )
__________________
fi, my name is Iván am from mexico city i love my guitar a yamaha drop 6 i have 3 more guitars but that's my favourite one contact me and we can manage to find figure out some hard tabs

Last edited by Illuminati : 2004-01-28 at 00:36.
Reply With Quote
  #8  
Old 2004-02-06, 00:42
Vidar Vidar is offline
New Blood
 
Join Date: Dec 2003
Location: Washington, USA
Posts: 5
Send a message via AIM to Vidar
Did a bit of cleanup. Among other things, hugging a stiring (in this case D) isn't good.

Code:
Riff A: from 0:00 to 0:59 E|-------------------------------- B|-------------------------------- G|-------------------------------- D|-------------9--7--9--10--7--7-- A|-2---7--8----------------------- E|-0------------------------------ x6 Riff B: from 0:59 to 1:52 E|----------------------------------------- B|----------------------------------------- G|----------------------------------------- D|----------------------------------------- A|--7--7-7-9-10--10-10-9-5--5-5-9-7--7-7--- E|--5--5-5-7-8---8--8--7-3--3-3-7-5--5-5--- x6 Repeat Riff A From 1:53 to 2:49 Riff C (part 1) From 2:50 to 3:14 E|-------------------------------------------- B|-------------------------------------------- G|-----------------------------------------7-- D|---7--9--10--9--7-------7--9--10--9--7------ A|-7-----------------7--7--------------------- E|-------------------------------------------- x4 Riff C (part 2) From 3:14 to 3:33 E|------------------------------------------ B|------------------------------------------ G|-----9--10--9--7------10--9--7--10--9----- D|-7-----------------7-------------------10- A|------------------------------------------ E|------------------------------------------ x4 Repeat Riff C (part 1) x4 From 3:33 to 3:51 Riff D From 3:52 to 4:30 E|--------------------------- B|--------------------------- G|-9-10--7-9-----7----------- D|------------10----9-10-7--- A|--------------------------- E|--------------------------- pm . . . . . . . | until 4:04 Riff E From 4:31 to 4:55 E|-------------------------------------------------------------- B|-------------------------------------------------------------- G|-------------------------------------------------------------- D|-7-7--7-7-7-7--7-7-7-7--7-7--9-10----------------------------- A|-----------------------------------7-7--7-7-7-7--7-7-7-7--7-7- E|-------------------------------------------------------------- E|--------------------------------------------------------------------------------- B|--------------------------------------------------------------------------------- G|--------------------------------------------------------------------------------- D|-9-10---9-9--9-9-9-9--9-9-9-9--9-9--9-10---------------------------------9-7----- A|-----------------------------------------10-10--10-10-10--10-10-10-10-10-----10-7 E|--------------------------------------------------------------------------------- Riff D x2 from 4:56 to 5:21 Riff A x6 from 5:22 to 6:31 (end)
Reply With Quote
  #9  
Old 2004-02-06, 13:58
Illuminati's Avatar
Illuminati Illuminati is offline
New Blood
 
Join Date: Jan 2004
Location: México city
Posts: 6
Send a message via MSN to Illuminati Send a message via Yahoo to Illuminati
Thumbs up what do you mean?

i don't kno what you mean please contact me thanks
__________________
fi, my name is Iván am from mexico city i love my guitar a yamaha drop 6 i have 3 more guitars but that's my favourite one contact me and we can manage to find figure out some hard tabs
Reply With Quote
  #10  
Old 2004-02-06, 15:44
Vidar Vidar is offline
New Blood
 
Join Date: Dec 2003
Location: Washington, USA
Posts: 5
Send a message via AIM to Vidar
The way you posted the last couple riffs, to play it you would have to go all the way up and down the g and d strings. Besides a little misc cleanup, I moved everything around so you could keep the left hand in one place.
Reply With Quote
Reply


Thread Tools Search this Thread
Search this Thread:

Advanced Search
Rate This Thread
Rate This Thread:

Posting Rules
You may not post new threads
You may not post replies
You may not post attachments
You may not edit your posts

vB code is On
Smilies are On
[IMG] code is Off
HTML code is Off
Forum Jump



All times are GMT -5. The time now is 08:30.


========

Contact Us | Privacy Policy | Disclaimer
Copyright © 2001-2009 MetalTabs.com. All Rights Reserved.
Powered by vBulletin
Copyright ©2000 - 2009, Jelsoft Enterprises Ltd.