MetalTabs.com - your source for Metal tabs
Home Forum What's New Submit a Tab FAQ Links Contact Us Link to Us


Go Back   MetalTabs.com Forum > Tabs > Tab Questions & Requests
User Name
Password


Reply
 
Thread Tools Search this Thread Rate Thread
  #1  
Old 2003-12-11, 22:49
BTP BTP is offline
Senior Metalhead
 
Join Date: Aug 2003
Location: Garden Ridge (right outside San Antonio), TX
Posts: 100
Between The Buried And Me

Anyone have something from "the silent circus?" that shit's crazy man
Reply With Quote
  #2  
Old 2003-12-12, 00:39
xwinger xwinger is offline
New Blood
 
Join Date: Nov 2003
Posts: 13
Ya anything from these guys would be great, their sh*t's mental! I like their first album better though.
Reply With Quote
  #3  
Old 2004-03-10, 08:03
riffer_03 riffer_03 is offline
New Blood
 
Join Date: Mar 2004
Posts: 14
I just got done tabbing out the intro to Aesthetic I'll send it to ya. but instab is the only thing that will open it i think.
Reply With Quote
  #4  
Old 2004-03-10, 08:45
riffer_03 riffer_03 is offline
New Blood
 
Join Date: Mar 2004
Posts: 14
sorry about the email thing ignore it i hope that this helps. it is the intro to Aesthetic by between the buried and me. it took me forever to figure out. its really crazy!


eb--------------------------------17--------------------------------
bb-----------------------------15----18-----------------------------
gb-------17h19h21---14h15h17----------17------------17-19-21-19--
Db------------------------------------------17h19h21-------------
ab--19-0----------17------------------------------------------------
db--19-0------------------------------------------------------------
harm.
--------------------------------------------------------------------
--------------------------------------------------------------------
-17-15----------------------------------17-15----------------19-----
-------19-17-15----19b20r19-----15-17--------19---17h19h20--------
----------------19-----------17------------------------------------
--------------------------------------------------------------------

--------------------------------------------------------------------
-18p17p15----17b18r17-----------------------------------------------
-----------17--------------------------------------------------------
--------------------------------------------------------------------
--------------------------------------------------------------------
--------------------------------------------------------------------

Last edited by riffer_03 : 2004-03-10 at 23:46. Reason: messed up
Reply With Quote
  #5  
Old 2004-03-21, 22:33
FuNeRaL ThUrSt FuNeRaL ThUrSt is offline
New Blood
 
Join Date: Mar 2004
Posts: 22
i wouldnt mind seeing a few tabs for btbam, and riffer nice work!!!
__________________
Killswitch Engage
Black Dahlia Murder
Between The Buried and Me
bleeding through
tenacious d
God forbid

Last edited by FuNeRaL ThUrSt : 2004-03-21 at 22:43.
Reply With Quote
  #6  
Old 2004-03-23, 06:01
riffer_03 riffer_03 is offline
New Blood
 
Join Date: Mar 2004
Posts: 14
i try

thanks man it took me quite a while to tab this one out. Right now im working on the intire tab for mordecai and the need for repetition and as soon as i get done you will see it here first
Reply With Quote
  #7  
Old 2004-03-25, 00:44
riffer_03 riffer_03 is offline
New Blood
 
Join Date: Mar 2004
Posts: 14
The need for Repetition

I just got done with the need for repetition tell me what you think
Attached Files
File Type: txt the need for repetition.txt (2.5 KB, 470 views)

Last edited by riffer_03 : 2004-04-08 at 06:54. Reason: fixed tab
Reply With Quote
  #8  
Old 2004-04-08, 16:41
FuNeRaL ThUrSt FuNeRaL ThUrSt is offline
New Blood
 
Join Date: Mar 2004
Posts: 22
what other btbam tabs are you working on right now???
__________________
Killswitch Engage
Black Dahlia Murder
Between The Buried and Me
bleeding through
tenacious d
God forbid
Reply With Quote
  #9  
Old 2004-04-09, 00:24
riffer_03 riffer_03 is offline
New Blood
 
Join Date: Mar 2004
Posts: 14
now im working on mordecai it should be done within two days then im doing Ad A Dglgmut and the whole version of Aesthetic in standard C# tuning..
Reply With Quote
  #10  
Old 2004-04-24, 14:06
FuNeRaL ThUrSt FuNeRaL ThUrSt is offline
New Blood
 
Join Date: Mar 2004
Posts: 22
cool any other bands you've tabbed out?
__________________
Killswitch Engage
Black Dahlia Murder
Between The Buried and Me
bleeding through
tenacious d
God forbid
Reply With Quote
  #11  
Old 2004-04-28, 22:02
hobag hobag is offline
New Blood
 
Join Date: Apr 2004
Posts: 3
Anyone know where I can finda More of Myself To Kill tab from the first CD?
Reply With Quote
  #12  
Old 2004-05-13, 14:07
Rick Metal Rick Metal is offline
Senior Metalhead
 
Join Date: May 2004
Posts: 155
I've seen'em live not long ago, their guitarists are beyond insane.
Reply With Quote
  #13  
Old 2004-05-26, 21:52
FuNeRaL ThUrSt FuNeRaL ThUrSt is offline
New Blood
 
Join Date: Mar 2004
Posts: 22
agree, INSANE
__________________
Killswitch Engage
Black Dahlia Murder
Between The Buried and Me
bleeding through
tenacious d
God forbid
Reply With Quote
  #14  
Old 2004-05-27, 20:03
reklaw23 reklaw23 is offline
New Blood
 
Join Date: May 2004
Location: slc
Posts: 2
Send a message via AIM to reklaw23
silent circus

Has anyone attempted to tab out Camilla Rhodes? If so let me know
Reply With Quote
  #15  
Old 2004-05-28, 02:41
zaomustdie zaomustdie is offline
New Blood
 
Join Date: May 2004
Posts: 1
More of myself to kill

tune down all strings C# F# B E G# C# ( i think thats right, just tune down a step and a half)

More of my self to kill part soft part

-------------------------------------------------------0------------
----------0----------------------3-------------3---------3----------
-----0-------0------------0--------0------5------5---------5-4-5---
--2----2-------2------4-------4---------5---5------5--------------5
---------------------------------------------------------------------
---------------------------------------------------------------------

i know more of it, but im too lazy to type it out
Reply With Quote
  #16  
Old 2004-05-29, 07:22
boomstick boomstick is offline
New Blood
 
Join Date: May 2004
Posts: 1
I downloaded a live video of 'camilla rhodes' and argh! its hard. I'll give it a try today though.
Reply With Quote
  #17  
Old 2004-05-29, 15:31
FuNeRaL ThUrSt FuNeRaL ThUrSt is offline
New Blood
 
Join Date: Mar 2004
Posts: 22
good luck man if ya get the song tabed post it : )
__________________
Killswitch Engage
Black Dahlia Murder
Between The Buried and Me
bleeding through
tenacious d
God forbid
Reply With Quote
  #18  
Old 2004-05-29, 22:39
reklaw23 reklaw23 is offline
New Blood
 
Join Date: May 2004
Location: slc
Posts: 2
Send a message via AIM to reklaw23
camillia rhodes

I've been tryin to figure it out for the last couple days and its damn tough! But I am getting somewhere, so it's not impossible.
Reply With Quote
  #19  
Old 2004-05-31, 16:48
DaveXcorE DaveXcorE is offline
New Blood
 
Join Date: May 2004
Posts: 2
Mordecai

can anyone send me a tab of "Mordecai"? that song is dope and i want to learn it.
Reply With Quote
  #20  
Old 2004-06-03, 05:03
riffer_03 riffer_03 is offline
New Blood
 
Join Date: Mar 2004
Posts: 14
ive been trying to tab mordecai for so long now. i cant get it all the way through though, its a tough song, i know about 3 minutes of it.
Reply With Quote
Reply


Thread Tools Search this Thread
Search this Thread:

Advanced Search
Rate This Thread
Rate This Thread:

Posting Rules
You may not post new threads
You may not post replies
You may not post attachments
You may not edit your posts

vB code is On
Smilies are On
[IMG] code is Off
HTML code is Off
Forum Jump



All times are GMT -5. The time now is 07:13.


========

Contact Us | Privacy Policy | Disclaimer
Copyright © 2001-2009 MetalTabs.com. All Rights Reserved.
Powered by vBulletin
Copyright ©2000 - 2009, Jelsoft Enterprises Ltd.