MetalTabs.com - your source for Metal tabs
Home Forum What's New Submit a Tab FAQ Links Contact Us Link to Us


Go Back   MetalTabs.com Forum > Tabs > Tab Questions & Requests
User Name
Password


Reply
 
Thread Tools
  #1  
Old 2002-08-15, 21:12
Gigantic Penis Gigantic Penis is offline
Post-whore
 
Join Date: Jul 2002
Location: Look out behind you! That monkey has a knife!
Posts: 1,405
in flames tabs

how come in flames guitar tabs are so long, yet when to the song, it sounds pretty easy. many songs off of clayman have really long tabs, yet the song sounds easy.

ex-Only for the weak. it goes:

intro-verse-chorus-verse-chorus-solo-chorus

and the intro riff is also the chorus riff(this applies to many songs) so why are the tabs so long?
__________________
"Hey! They're working! My feet are soaking wet, but my cuffs are bone dry! Everything's comin' up Milhouse!"

"I guess it all works out in the end"
"Yeah, the REAR end."

-Beavis and Butt-head
Reply With Quote
  #2  
Old 2002-08-16, 09:21
Darkenelf's Avatar
Darkenelf Darkenelf is offline
Supreme Metalhead
 
Join Date: Mar 2002
Location: the cold north
Posts: 625
re:

probably posted all riffs, what probably differs in one or 2 notes
at the end or somewhere else.
__________________
VIKING/FOLK METAL SITE
http://www.vikingblood.net/

Join the hordes!!
Reply With Quote
  #3  
Old 2002-08-19, 18:10
Father Death Father Death is offline
Forum Reverend
Forum Leader
 
Join Date: Oct 2001
Location: CANADA!!
Posts: 843
Arrow

yeah that sounds about right...nothing wrong w/a complete tab...and if its really too long, then copy and paste it for your own purposes
__________________
the patterns are everywhere...
Reply With Quote
  #4  
Old 2002-09-07, 09:54
Longjocks's Avatar
Longjocks Longjocks is offline
Metalhead
 
Join Date: Sep 2001
Location: Two Steps Short of Nowhere!
Posts: 81
Re: in flames tabs

Quote:
Originally posted by Gigantic Penis
ex-Only for the weak. it goes:

intro-verse-chorus-verse-chorus-solo-chorus

and the intro riff is also the chorus riff(this applies to many songs) so why are the tabs so long?

Using that song as an example, there are several guitar parts. The intro has two guitar parts, the verse ends up with three (rhythm and two harmony guitars over it), the chorus has two parts (one played with the synth only live... disappointing). Then you have the solo with harmonies throughout (and the rhythm underneath) and finally you have a key change at the end (after the slience and the synth fade-in section) that only mimics the earlier riffs.

So, what sounds simple can be layered and it all depends on whether the tabber can be bothered doing it 100% acurately as to whether you see a complex/long tab or not.
Reply With Quote
  #5  
Old 2002-10-12, 13:42
Waylander Waylander is offline
New Blood
 
Join Date: Jun 2002
Posts: 7
Request Guitar Tabs:In Flames:Reroute To Remain Guitar Tabs

Does anyone have any guitar tabs for in flames new album or in progress of transcribing them?
Reply With Quote
  #6  
Old 2002-10-23, 19:53
Blizzard Beast Blizzard Beast is offline
Senior Metalhead
 
Join Date: Apr 2002
Location: Atlanta Georgia a.k.a asshole of the universe
Posts: 262
Anything off the new In Flames

Can anyone PLEASE tab something off the new In Flames Album?

Thanks in advance
__________________
Blizzard Beast
Suck a turd to a point and stab yourself with it..
Reply With Quote
  #7  
Old 2002-11-03, 01:56
alexguitargodbu's Avatar
alexguitargodbu alexguitargodbu is offline
Senior Metalhead
 
Join Date: Jul 2002
Location: CRAZY ROOM
Posts: 129
Ill try
as long as I dont have to tune my guitar way too down...
__________________
...and the punk died in satans reign...
Reply With Quote
  #8  
Old 2002-11-03, 02:13
Father Death Father Death is offline
Forum Reverend
Forum Leader
 
Join Date: Oct 2001
Location: CANADA!!
Posts: 843
Arrow

u'll have to go 2 steps for most...

i may get Cloud Connected done sometime..."may" get
__________________
the patterns are everywhere...
Reply With Quote
  #9  
Old 2002-11-09, 21:48
Blizzard Beast Blizzard Beast is offline
Senior Metalhead
 
Join Date: Apr 2002
Location: Atlanta Georgia a.k.a asshole of the universe
Posts: 262
Sounds good. Let me know when it's finished
__________________
Blizzard Beast
Suck a turd to a point and stab yourself with it..
Reply With Quote
  #10  
Old 2002-12-27, 07:12
almightylucifer almightylucifer is offline
New Blood
 
Join Date: Apr 2002
Location: Singapore
Posts: 1
REQ: In Flames-Cloud Connected

Post links if u have found this tab anywhere. If there isnt any in this world, tabbers out there please tab out tis song. Maybe the music video could be helpful.
Reply With Quote
  #11  
Old 2002-12-27, 09:28
EmperorMalignus
Guest
 
Posts: n/a
I remember Euronymous tabbed this song, go in "tab posting" forum
Reply With Quote
  #12  
Old 2002-12-27, 09:29
EmperorMalignus
Guest
 
Posts: n/a
Reply With Quote
  #13  
Old 2002-12-29, 15:51
sausage_fingers sausage_fingers is offline
New Blood
 
Join Date: Dec 2002
Posts: 1
REQ. In Flames - Coerced Coexistence

Could someone tab this song plz plz plz ill kiss ur feet if u do
Reply With Quote
  #14  
Old 2002-12-29, 15:53
Tattered's Avatar
Tattered Tattered is offline
Symbiotic In Theory
Forum Leader
 
Join Date: Jun 2002
Location: England, United Kingdom
Posts: 4,306
AGH! duuuuuuuuude
Reply With Quote
  #15  
Old 2003-01-17, 00:51
Metallica Man Metallica Man is offline
New Blood
 
Join Date: Mar 2002
Location: 7th circle of Hell(Seminole, TX)
Posts: 18
In Flames Tabs Needed

Does anyone have tabs for Cloud Connected by In Flames, if so could you
post them here or tell me where i could get them. I'd appreciate it.
__________________
Absence of the mind is liberation.
Reply With Quote
  #16  
Old 2003-01-17, 22:35
Ben Wrangle Ben Wrangle is offline
Metalhead
 
Join Date: Nov 2002
Location: So Paulo/SP - Brazil
Posts: 60
Send a message via ICQ to Ben Wrangle
/---------------------------------------------------------------------------
/ The following is the author's own interpretation of the song, to be used -
/ for studying or private use only, removal of any part of this ten line -
/ header is illegal!!! Removal of the transcribers name or anything -
/ relevant to the transcriber is also illegal, as so is the removal of the -
/ place inwhich the tab was downloaded. Publishing as well as printing of -
/ the tab is illegal without permission of the transcriber and copyright -
/ owner of the song. Failure to apply to these laws result will in legal -
/ action from the appropriate parties. -
/---------------------------------------------------------------------------

downloaded from Displacer's Tablature Site at
http://www.dsrmusic.com/metaltab
join the death/black tab emailing list by filling out the free
subscription form at http://www.dsrmusic.com/metaltab


Transcribed by: Thomas Schlkopf
IN FLAMES - CLOUD CONNECTED from Reroute to Remain

Tune down to C (C F Bb Eb G C)

Intro: synth

0:10 0:15-0:35
|---------------|-------------||-------| |--------------------------|
|---------------|-------------||-------| |--------------------------|
|---------------|-------------||-------| |--------------------------| Riff B 8 times
|--------------0|-------------||-7p5---| |---------5p4--------------|
|-2-2--2-2-----2|-2-2--2-2----||----h7-| |(7)-5h7------7--5h7p5h7---|
|-0-0--0-0-----0|-0-0--0-0----||-------| |--000----------7----------|
. . . . . . . .
ending
guitar 1&2 guitar 2 guitar 1&2



Pre-Verse:

0:35
|-----------|
|-----------|
|-----------| Riff C
|-----------|
|-2-2--2-2--|
|-0-0--0-0--|
. . . .
guitar 1&2


Verse: People like you You live in a dream world


You despise the outside And you fear .....

0:45
|-------||--------------------------||-----------------------------------|
|-------||--------------------------||-----------------------------------|
|-------||--------------------------||----------------------9~-10~-9~-7~-|
|----5--||---------5p4--------------||---------5p4----------9~-10~-9~-7~-|
|-5h7-7-||(7)-5h7------7--5h7p5h7---||(7)-5h7------7--5h7p5h7~-9~--7~-9~-|
|-------||--000----------7----------||--000----------7-------------------|

....you're the next one



Pre-Verse:

0:56
|-----------|
|-----------|
|-----------| Riff C
|-----------|
|-2-2--2-2--|
|-0-0--0-0--|
. . . .
guitar 1&2


Verse: It's in your dream There's just one question


Should I kill? Or should I be....

1:05
|-------||---------------------|----------------|---------------------|-------------|
|-------||---------------------|----------------|---------------------|-------------|
|-------||---------------------|9--7h9-7--7~----|---------------------|9--7h9-7--7--|
|-7p5---||---------5p4---------|7--7---7--5~-7~-|---------5p4---------|7--7---7--5--| break
|----h7-||-7--5h7------7--5h7p5|-000--00-----9~-|-7--5h7------7--5h7p5|-000--00-----|
|-------||--000----------7-----|----------------|--000----------7-----|-------------|

....left behind? Sick and tired Of all your complaints This is the hour We bring it down







Chorus:

1:16
|----------------------|------------------------------|
|8---------------------|-8----------------------------|
|7-----------4---------|-7-------------------4----2---| Guitar 1
|5-----------4---------|-5-------------------4----2---|
|------------2---------|---------------------2----0---|
|----------------------|------------------------------|

|----------------------|------------------------------|
|----------------------|------------------------------|
|------------4---------|---------------------4----2---| Guitar 2
|5-----------4---------|-5-------------------4----2---|
|5-----------2---------|-5-------------------2----0---|
|3---------------------|-3----------------------------|

I've come to realize Every little glimpse, you fade


I was told that I could fly When least expected, cloud connected




1:36 BREAK !!!! 2secs synth continues

1:38
|-----------| |---------------|-------------||-------| |--------------------------|-----------------------------------|
|-----------| |---------------|-------------||-------| |--------------------------|-----------------------------------|
|-----------| |---------------|-------------||-------| |--------------------------|----------------------9~-10~-9~-7~-|
|-----------| |--------------0|-------------||-7p5---| |---------5p4--------------|---------5p4----------9~-10~-9~-7~-|
|-2-2--2-2--| |-2-2--2-2-----2|-2-2--2-2----||----h7-| |-7--5h7------7--5h7p5h7---|-7--5h7------7--5h7p5h7~-9~--7~-9~-|
|-0-0--0-0--| |-0-0--0-0-----0|-0-0--0-0----||-------| |--000----------7----------|--000----------7-------------------|
. . . . . . . . . . . .
You seem to be So introverted How come we fail? With all that is given?



1:58
|-----------| |---------------|--------------------------------| |------||---------------|
|-----------| |---------------|--------------------------------| |------||---------------|
|-----------| |---------------|--------------------------------| |------||---------------|
|-----------| |--------------0|--------------------------------| |----7-||-10~--9~--7~--5|
|-2-2--2-2--| |-2-2--2-2-----2|--2---2----------------2---2----| |-7h9--||-10~--9~--7~--5|
|-0-0--0-0--| |-0-0--0-0-----0|--0---0----------------0---0----| |------||-8~---7~--5~--3|
. . . . . . . . . . . .
You crossed the line You remember my name Time runs backwards (As long) as you are heading that way





Chorus:

2:12
|----------------------|------------------------------|
|8---------------------|-8----------------------------|
|7-----------4---------|-7-------------------4----2---| Guitar 1
|5-----------4---------|-5-------------------4----2---|
|------------2---------|---------------------2----0---|
|----------------------|------------------------------|

|----------------------|------------------------------|
|----------------------|------------------------------|
|------------4---------|---------------------4----2---| Guitar 2
|(5)---------4---------|-5-------------------4----2---|
|(5)---------2---------|-5-------------------2----0---|
|(3)-------------------|-3----------------------------|

I've come to realize Every little glimpse, you fade


I was told that I could fly When least expected, cloud connected





Solo:

2:31
|-------------------------------------------------------------------------------------------|
|-------------------------------------------------------------------------------------------|
|-------------------------------------------------------------------------------------------| guitar 1
|-------------------------------------------------------------------------------------------|
|-------------7b---\5~ /777~----------------------------------------------------------------|
|-------------------------------------------------------------------------------------------|
. ...


|--------------------------|-------------||-------||--------------------------|-------------|
|--------------------------|-------------||-------||--------------------------|-------------|
|--------------------------|-------------||-------||--------------------------|-------------| guitar 2
|-------------------------0|-------------||-7p5---||-------------------------0|-------------|
|-2-2--2-2----------------2|-2-2--2-2----||----h7-||-2-2--2-2----------------2|-2-2--2-2----|
|-0-0--0-0----------------0|-0-0--0-0----||-------||-0-0--0-0----------------0|-0-0--0-0----|
. . . .
cloud connected


2:41
|------------------------------------------------------------|-------------------------------------------------------|
|------------------------------------------------------------|-------------------------------------------------------|
|------------------------------------------------------------|-9-h11h12-11-9----11------9~-9-h11h12-11-9----12----9~-|
|------------------------------------------------------------|---------------12----9-12-------------------12---12----|
|-10-9----7~-7-h9h10-9-7----9------7~-7-h9h10-9-7----10----7~|-------------------------------------------------------|
|-----10-----------------10---7-10----------------10----10---|-------------------------------------------------------|


Chorus:

2:12
|----------------------|------------------------------|
|8---------------------|-8----------------------------|
|7-----------4---------|-7-------------------4----2---| Guitar 1
|5-----------4---------|-5-------------------4----2---|
|------------2---------|---------------------2----0---|
|----------------------|------------------------------|

|----------------------|------------------------------|
|----------------------|------------------------------|
|------------4---------|---------------------4----2---| Guitar 2
|(5)---------4---------|-5-------------------4----2---|
|(5)---------2---------|-5-------------------2----0---|
|(3)-------------------|-3----------------------------|

I've come to realize Every little glimpse, you fade


I was told that I could fly When least expected, cloud connected




|--------------------------|
|--------------------------|
|--------------------------| Riff B 4 times
|---------5p4--------------|
|(7)-5h7------7--5h7p5h7---|
|--000----------7----------|


|-----------|
|-----------|
|-----------| Riff C
|-----------|
|-2-2--2-2--|
|-0-0--0-0--|
. . . .
guitar 1&2


end


notes:

p: pull
h: hammer on
b: bend
/: slide up
\: slide down
~: hold
.: palm mute


this is the first song i tabbed (nearly) completly. I didnt finish the solo yet, perhaps one of you could help me a little bit with these 10 seconds.

Mail to: tschoelkopf@gmx.de
__________________
"W"

UP THE IRONS!!!




"Patana neyua shouy, shouy motuko."
Steve Rhoadies (Married With Children)
Reply With Quote
  #17  
Old 2003-01-17, 22:38
Ben Wrangle Ben Wrangle is offline
Metalhead
 
Join Date: Nov 2002
Location: So Paulo/SP - Brazil
Posts: 60
Send a message via ICQ to Ben Wrangle
Artist: In Flames
Song: Cloud Connected
Album: Reroute to Remain (2002)
Label: Nuclear Blast
Tabbed by: Daniel Molnar (Azrael666isGod@hotmail.com)

Pm.: Palm Mute (pretty strong in this song)
~: Let ring
h: Hammer-on

That's all you need for this song.

Tune to C

Intro:
|----------------------------------------------------------------------------------------
|----------------------------------------------------------------------------------------
|-----------7----------------------------------------------------------------------------
|-2-2--2-2--7--2-2--2-2------------------------------------------------------------------
|-2-2--2-2--5--2-2--2-2------------------------------------------------------------------
|-0-0--0-0-----0-0--0-0------------------------------------------------------------------
Pm. . . . . . . .

Verse 1:
|------------------------------|---------------------------------------------------------
|------------------------------|---------------------------------------------------------
|------------------------------|--9~--11~--9~--------------------------------------------
|------------------------------|--9~--11~--9~--9~----------------------------------------
|-7----5h7---10---9---5-----5--|--7~--9~---7~--9~----------------------------------------
|--0-0-----0----0---0---7-7----|---------------7~----------------------------------------
Pm . . . . . . . \_____________/ second+third time around

Verse 2:
|----------------------------------------------------------------------------------------
|----------------------------------------------------------------------------------------
|-----------7----------------------------------------------------------------------------
|-2-2--2-2--7--2-2--2-2------------------------------------------------------------------
|-2-2--2-2--5--2-2--2-2------------------------------------------------------------------
|-0-0--0-0-----0-0--0-0------------------------------------------------------------------
Pm. . . . . . . .

Verse 1
Verse 2

Pre-chorus:
|----------------------------------------------------------------------------------------
|----------------------------------------------------------------------------------------
|------------------------------------------7---------------------------------------------
|------------------------------------------7--5------------------------------------------
|-7----5h7---10---9---5-----5-0------------5--5------------------------------------------
|--0-0-----0----0---0---7-7-----0-0-3h5-5-----3------------------------------------------
Pm . . . . . . . . .

Chorus:
|----------------------------------------------------------------------------------------
|----------------------------------------------------------------------------------------
|----------------------------------------------------------------------------------------
|------------------4444444444444444------------------444444444-22222222------------------
|-5555555555555555-2222222222222222-5555555555555555-222222222-00000000------------------
|-3333333333333333------------------3333333333333333-------------------------------------
"I've come to realize... with every little glimpse... you fade" etc. etc. etc.

Verse 2
Verse 1
Verse 2

Little fill sort of thing at the end of Verse 2
|----------------------------------------------------------------------------------------
|----------------------------------------------------------------------------------------
|----------------------------------------------------------------------------------------
|-10101010101010-10101010101010-7777777--------------------------------------------------
|-8-8-8-8-8-8-8--7-7-7-7-7-7-7--5555555--------------------------------------------------
|----------------------------------------------------------------------------------------

Chorus
Verse 2 under first solo

Under second solo:
|----------------------------------------------------------------------------------------
|----------------------------------------------------------------------------------------
|------9~--------------------------------------------------------------------------------
|-10~--9~--12~--9~-----------------------------------------------------------------------
|-10~--7~--12~--9~-----------------------------------------------------------------------
|-8~-------10~--7~-----------------------------------------------------------------------

Chorus
Verse 1
Verse 2 (without the F chord)

END! Well, I know that this tab must also suck. Apparently, I was pretty fucking bored
one day so I decided to get this bullsh*t together in 10 minutes. For that reason, it
most likely sucks. Anyway, if you have any questions, comments, requests, corrections,
spare amplifiers or guitars, or even a "get a free beer" coupon, email me. Check out my
other tabs too, like:

Soilwork - As We Speak
Sear Bliss - Twighlight
Burzum - Naar Himmelen Klarner

Have phun!
__________________
"W"

UP THE IRONS!!!




"Patana neyua shouy, shouy motuko."
Steve Rhoadies (Married With Children)
Reply With Quote
  #18  
Old 2003-01-17, 22:40
Ben Wrangle Ben Wrangle is offline
Metalhead
 
Join Date: Nov 2002
Location: So Paulo/SP - Brazil
Posts: 60
Send a message via ICQ to Ben Wrangle
oh, i almost forgot..... go at "Tab Posting", there's another version for Cloud Connected.
__________________
"W"

UP THE IRONS!!!




"Patana neyua shouy, shouy motuko."
Steve Rhoadies (Married With Children)
Reply With Quote
  #19  
Old 2003-01-18, 13:05
alexguitargodbu's Avatar
alexguitargodbu alexguitargodbu is offline
Senior Metalhead
 
Join Date: Jul 2002
Location: CRAZY ROOM
Posts: 129
jesus, that song sucks man.
__________________
...and the punk died in satans reign...
Reply With Quote
  #20  
Old 2003-01-18, 21:49
Gigantic Penis Gigantic Penis is offline
Post-whore
 
Join Date: Jul 2002
Location: Look out behind you! That monkey has a knife!
Posts: 1,405
you should clean that tab up...............
__________________
"Hey! They're working! My feet are soaking wet, but my cuffs are bone dry! Everything's comin' up Milhouse!"

"I guess it all works out in the end"
"Yeah, the REAR end."

-Beavis and Butt-head
Reply With Quote
Reply


Thread Tools

Posting Rules
You may not post new threads
You may not post replies
You may not post attachments
You may not edit your posts

vB code is On
Smilies are On
[IMG] code is Off
HTML code is Off
Forum Jump



All times are GMT -5. The time now is 02:42.


========

Contact Us | Privacy Policy | Disclaimer
Copyright © 2001-2009 MetalTabs.com. All Rights Reserved.
Powered by vBulletin
Copyright ©2000 - 2009, Jelsoft Enterprises Ltd.