MetalTabs.com - your source for Metal tabs
Home Forum What's New Submit a Tab FAQ Links Contact Us Link to Us


Go Back   MetalTabs.com Forum > Tabs > Tab Questions & Requests
User Name
Password


Reply
 
Thread Tools Search this Thread Rate Thread
  #1  
Old 2009-06-20, 04:51
Shurhabean Shurhabean is offline
New Blood
 
Join Date: Jun 2009
Posts: 3
Peste Noire - phalenes et pestilence intro

Hi, all
Recently I got more and more into acoustic passages, so any ideas how to play this amazing intro will be appreciated! Ah, and I also hope somebody attempts at Ballade cuntre les anemis de la France - great song!
Both are pretty tricky to me because I'm unfamiliar with acoustic playing, so can anyone help?
(Well, actually my girlfriend will appreciate this stuff too)
Reply With Quote
  #2  
Old 2009-06-23, 22:57
hknz hknz is offline
New Blood
 
Join Date: Apr 2008
Location: new zealand
Posts: 2
Hey there! I've tried tabbing those before and it's not too hard, I just haven't much time, so I will give it another go in a few weeks. They won't be perfect, but great songs to learn.

I've figured that most of Peste Noires songs are in D Bebop Dominant scale, if that helps you...

A shame there isn't much more PN tabs out there
Reply With Quote
  #3  
Old 2009-06-24, 23:47
Shurhabean Shurhabean is offline
New Blood
 
Join Date: Jun 2009
Posts: 3
Nice, I'm eager to see your tabs
Reply With Quote
  #4  
Old 2009-06-28, 16:02
MW_ MW_ is offline
New Blood
 
Join Date: May 2006
Posts: 29
Man, I'd kill for a tab to Dueil Angoisseus. Especially for that acoustic part.
Reply With Quote
  #5  
Old 2009-07-13, 02:47
Shurhabean Shurhabean is offline
New Blood
 
Join Date: Jun 2009
Posts: 3
So, what's about your tabs, hknz?
Reply With Quote
  #6  
Old 2009-07-18, 01:36
hknz hknz is offline
New Blood
 
Join Date: Apr 2008
Location: new zealand
Posts: 2
Hey, sorry been busy with study, but I can show you what I have so far. Like I said it isn't perfect, but was as close as I could get it. Feel free to change it to what you think sounds better !



|-------------------------|--------------------------|
|-------------------------|--------------------------|
|-------------------------|--------------------------|
|-------------------------|--------------------------|
|--0---7--5--3--2--3--5--|--0----8p7-5--3~----7----|
|-------------------------|--------------------------|


-------------------------|----------------------------|
-------------------------|------------10--8----6s--3--|
-------------0--2--4--5--|---------------------------|
-------2--3--------------|----------------------------|
--0----------------------|---------7------------------|
-------------------------|--0--7----------------------|


-------------------------|-------------------------|---------------------------|
-------------------------|-------------------------|-----------------------12--|
-------------------------|-------------------------|---------------------------|
-------------------------|-------------------------|-------10------------------|
--0----7--5--3--2--3--5--|--0----8-7-5--3~----7----|--0--------12--0--0--------|
-------------------------|-------------------------|---------------------------|


------------------------|--------------||
------------------------|--------------||
--------------12--------|--------------||
-----9-----9------------|--------------||
--------7---------------|--0--5--7--8--||
--0---------------------|--------------||
Reply With Quote
Reply


Thread Tools Search this Thread
Search this Thread:

Advanced Search
Rate This Thread
Rate This Thread:

Posting Rules
You may not post new threads
You may not post replies
You may not post attachments
You may not edit your posts

vB code is On
Smilies are On
[IMG] code is Off
HTML code is Off
Forum Jump



All times are GMT -5. The time now is 00:02.


========

Contact Us | Privacy Policy | Disclaimer
Copyright © 2001-2009 MetalTabs.com. All Rights Reserved.
Powered by vBulletin
Copyright ©2000 - 2009, Jelsoft Enterprises Ltd.