MetalTabs.com - your source for Metal tabs
Home Forum What's New Submit a Tab FAQ Links Contact Us Link to Us


Go Back   MetalTabs.com Forum > Tabs > Tab Questions & Requests
User Name
Password


Reply
 
Thread Tools Search this Thread Rate Thread
  #1  
Old 2002-12-19, 09:35
Mofoism's Avatar
Mofoism Mofoism is offline
Senior Metalhead
 
Join Date: Dec 2002
Location: canada
Posts: 349
Request: Death is the Hunter by the crown

hey guys,


Death is the Hunter by the crown
if someone can fill this request i'd be very much thankful
have a good day


thanks
__________________
Well, shit on my head and call me 'John Paul'
Reply With Quote
  #2  
Old 2003-01-12, 19:55
guitar_demon's Avatar
guitar_demon guitar_demon is offline
MotörCat
 
Join Date: Oct 2002
Location: &#26132&#26132
Posts: 7,547
Send a message via AIM to guitar_demon Send a message via MSN to guitar_demon
REQ: suicide solo

im trying to find the solo to Suicide machine by death of the human album i knwo how to play the song exept the solo can anyone tab it out for me or tell me where to find it thanx
__________________
POW MIA NEVER FORGOTTEN
no one can tell you to turn down your amp unless they're of higher skill or in your band
Why not make shit up as we go-fox
Ok. You're literate, intelligent and funny-FBS

"Calm down, Edgar back in your cage"-far beyond sane
"you suck the cat-avatar-guy doesnt"-The Doc
Now My Legacy Shall Live Forever!!
Reply With Quote
  #3  
Old 2003-01-21, 21:05
Bones98's Avatar
Bones98 Bones98 is offline
Post-whore
 
Join Date: Nov 2002
Location: Corona, California
Posts: 1,824
Send a message via AIM to Bones98
can you tab me Suicide Machine except for the solo for me please?
Cuz I can't find web sites for the Suicide Machine tab
__________________
I suck at guitar.
Reply With Quote
  #4  
Old 2003-01-29, 16:07
damonta's Avatar
damonta damonta is offline
Senior Metalhead
 
Join Date: Oct 2002
Location: west of appilachia
Posts: 265
Send a message via MSN to damonta
Death-Flattening of Emotions solo

I need Masidal's solo from Flattening of Emotions
Reply With Quote
  #5  
Old 2003-01-30, 20:16
Bones98's Avatar
Bones98 Bones98 is offline
Post-whore
 
Join Date: Nov 2002
Location: Corona, California
Posts: 1,824
Send a message via AIM to Bones98
I have a file I'll send it to ya......
Here ya go!
Attached Files
File Type: txt tab_d_human-flattening-solo.txt (2.5 KB, 180 views)
__________________
I suck at guitar.
Reply With Quote
  #6  
Old 2003-02-08, 13:03
Mofoism's Avatar
Mofoism Mofoism is offline
Senior Metalhead
 
Join Date: Dec 2002
Location: canada
Posts: 349
the first person to tab this gets my first born child, and my sister
__________________
Well, shit on my head and call me 'John Paul'
Reply With Quote
  #7  
Old 2003-02-09, 19:57
Bones98's Avatar
Bones98 Bones98 is offline
Post-whore
 
Join Date: Nov 2002
Location: Corona, California
Posts: 1,824
Send a message via AIM to Bones98
whats the bands name?
__________________
I suck at guitar.
Reply With Quote
  #8  
Old 2003-02-09, 21:15
Mofoism's Avatar
Mofoism Mofoism is offline
Senior Metalhead
 
Join Date: Dec 2002
Location: canada
Posts: 349
the crown

song is called death is the hunter


thanks
__________________
Well, shit on my head and call me 'John Paul'
Reply With Quote
  #9  
Old 2003-02-10, 03:59
Darkenelf's Avatar
Darkenelf Darkenelf is offline
Supreme Metalhead
 
Join Date: Mar 2002
Location: the cold north
Posts: 625
from which album is it?

only have : hell is here, and crowned in terror

is if it's on, i can tab it for ya!!
__________________
VIKING/FOLK METAL SITE
http://www.vikingblood.net/

Join the hordes!!
Reply With Quote
  #10  
Old 2003-02-10, 10:59
Mofoism's Avatar
Mofoism Mofoism is offline
Senior Metalhead
 
Join Date: Dec 2002
Location: canada
Posts: 349
hey ! its from crowned in terror! track number 9 or 10!!

thanks man!!

my sister is yours haha
__________________
Well, shit on my head and call me 'John Paul'

Last edited by Mofoism : 2003-02-10 at 17:22.
Reply With Quote
  #11  
Old 2003-02-12, 04:18
Darkenelf's Avatar
Darkenelf Darkenelf is offline
Supreme Metalhead
 
Join Date: Mar 2002
Location: the cold north
Posts: 625
re

i listened to the song, but it's to difficult for me!!

sorry!!

the only song, what is reasonable to tab out, is song number 4.
__________________
VIKING/FOLK METAL SITE
http://www.vikingblood.net/

Join the hordes!!
Reply With Quote
  #12  
Old 2003-02-12, 10:33
Mofoism's Avatar
Mofoism Mofoism is offline
Senior Metalhead
 
Join Date: Dec 2002
Location: canada
Posts: 349
no problems, try that one if you want! the crown rules
__________________
Well, shit on my head and call me 'John Paul'
Reply With Quote
  #13  
Old 2003-02-24, 01:09
Bones98's Avatar
Bones98 Bones98 is offline
Post-whore
 
Join Date: Nov 2002
Location: Corona, California
Posts: 1,824
Send a message via AIM to Bones98
QUESTION: ABOUT "Secret Face" from DEATH

There is a part in the song when theres a guitar with
DIST+FLANGER on, and I was wondering if the first Pinch harmonic part has layered over because it sounds so intense. Or is there more tabs to this songs which tell where the pinch harmonic is done?
__________________
I suck at guitar.
Reply With Quote
  #14  
Old 2003-02-24, 22:32
guitar_demon's Avatar
guitar_demon guitar_demon is offline
MotörCat
 
Join Date: Oct 2002
Location: &#26132&#26132
Posts: 7,547
Send a message via AIM to guitar_demon Send a message via MSN to guitar_demon
it might have been a one shot deal chuck was awsome witht hose or it could have been a mistake gone good like on the master of puppets solo where kirk hits that really fiuckign high not that was an accident but it turned out so fucking sweet
__________________
POW MIA NEVER FORGOTTEN
no one can tell you to turn down your amp unless they're of higher skill or in your band
Why not make shit up as we go-fox
Ok. You're literate, intelligent and funny-FBS

"Calm down, Edgar back in your cage"-far beyond sane
"you suck the cat-avatar-guy doesnt"-The Doc
Now My Legacy Shall Live Forever!!
Reply With Quote
  #15  
Old 2003-03-14, 21:08
reign in blood's Avatar
reign in blood reign in blood is offline
Metalhead
 
Join Date: Jul 2002
Location: metro east St. Louis area
Posts: 89
Send a message via AIM to reign in blood Send a message via Yahoo to reign in blood
solo for A Moment Of Clarity-Death

every tab i see of this song it doesn't include the solo, or it gives the backing chords but never the actual solo, if anyone has or knows where i could find this please tell me!

__________________
reign in blood from a lacerated sky bleeding its horror now i shal reign in bloodl
Reply With Quote
  #16  
Old 2003-04-02, 14:47
Mikael Nacudrus Mikael Nacudrus is offline
New Blood
 
Join Date: Apr 2002
Location: Satu Mare,NV Transylvania
Posts: 19
Request: solo from Death - Pull the Plug

i need the solo from Death - Pull the Plug.Can anyone help?
__________________
The sweet remembrence of the just
Shall live when ingrates sleep in dust
Reply With Quote
  #17  
Old 2003-04-02, 22:05
corroded's Avatar
corroded corroded is offline
Post-whore
 
Join Date: Dec 2002
Location: the putrefying road in the nineteenth extremity
Posts: 1,309
Send a message via MSN to corroded
here dude.....this is chuck's solo.......rick's solo is just some wild tapping stuff.....you can figure it out easily.....

|-----------------------------------------------|
|--12-------------------------------------------|
|--------------------9h10h9-----9--11--12--11--|
|----------9--11--12---------12-----------------|
|-----------------------------------------------|
|-----------------------------------------------|



---------------------------------------------|
---------------------------------12-12-12-12-|
--9--11--9-----------------------------------|
------------12--11--9--11~-------------------|
---------------------------------------------|
---------------------------------------------|



--------------------------------------------------------------------------|
--13h12h10h13h10----13h12h10h13h10----13h12h10h13h10----13h12h10-13h10----|
-----------------12----------------12----------------12----------------12-|
--------------------------------------------------------------------------|
--------------------------------------------------------------------------|
--------------------------------------------------------------------------|



-------------------------------------------------|
--13h12h10h13h10----13h12h10h13h10---------------|
-----------------12----------------9~------------|
-------------------------------------------------|
-------------------------------------------------|
-------------------------------------------------|



--------------------------------------------------------|
--------------------------------------------------------|
--16~---------16-17-16-14----------------14-16-17-16-17-|
--------------------------16-14----14-16----------------|
--------------------------------16----------------------|
--------------------------------------------------------|



-----------------------------14-15-17-15-14----------------14-15-17-------|
--14-15-17----14-15-17-15-17----------------17-15-14-15-17----------17-15-|
-----------17-------------------------------------------------------------|
--------------------------------------------------------------------------|
--------------------------------------------------------------------------|
--------------------------------------------------------------------------|



--17b-----17b-----17r-----17b-----|
----------------------------------|
----------------------------------|
----------------------------------|
----------------------------------|
----------------------------------|



--18-17-15----------18-17-15----------------------------------|
-----------18-16-15----------18-16-15-13----------------------|
------------------------------------------14------12----------|
----------------------------------------------11--------------|
------------------------------------------------------15------|
----------------------------------------------------------12~-|
__________________
I, Himself - An asshole's gotta do what an asshole's gotta do!!!
Reply With Quote
  #18  
Old 2003-04-04, 15:14
Mikael Nacudrus Mikael Nacudrus is offline
New Blood
 
Join Date: Apr 2002
Location: Satu Mare,NV Transylvania
Posts: 19
ok
10x man
i'll try it out,although i am sure it excedes my skill
__________________
The sweet remembrence of the just
Shall live when ingrates sleep in dust
Reply With Quote
  #19  
Old 2003-04-04, 21:58
corroded's Avatar
corroded corroded is offline
Post-whore
 
Join Date: Dec 2002
Location: the putrefying road in the nineteenth extremity
Posts: 1,309
Send a message via MSN to corroded
.........its not that tough dude
__________________
I, Himself - An asshole's gotta do what an asshole's gotta do!!!
Reply With Quote
  #20  
Old 2003-04-05, 16:23
Mikael Nacudrus Mikael Nacudrus is offline
New Blood
 
Join Date: Apr 2002
Location: Satu Mare,NV Transylvania
Posts: 19
but is the beggining the one you wrote?
because i've seen another tab and it seemed impossible:

--17p14p12h14h15h17p14h15----14/-17p14p12h14h15h17p14-15-15-14~---|
--------------------------12--------------------------------------|
------------------------------------------------------------------|
------------------------------------------------------------------|
------------------------------------------------------------------|
------------------------------------------------------------------|

and it seems to fucking fast!!!!
__________________
The sweet remembrence of the just
Shall live when ingrates sleep in dust
Reply With Quote
Reply


Thread Tools Search this Thread
Search this Thread:

Advanced Search
Rate This Thread
Rate This Thread:

Posting Rules
You may not post new threads
You may not post replies
You may not post attachments
You may not edit your posts

vB code is On
Smilies are On
[IMG] code is Off
HTML code is Off
Forum Jump



All times are GMT -5. The time now is 15:23.


========

Contact Us | Privacy Policy | Disclaimer
Copyright © 2001-2009 MetalTabs.com. All Rights Reserved.
Powered by vBulletin
Copyright ©2000 - 2009, Jelsoft Enterprises Ltd.