MetalTabs.com - your source for Metal tabs
Home Forum What's New Submit a Tab FAQ Links Contact Us Link to Us


Go Back   MetalTabs.com Forum > Tabs > Tab Questions & Requests
User Name
Password


Reply
 
Thread Tools Search this Thread Rate Thread
  #1  
Old 2002-12-22, 11:26
damonta's Avatar
damonta damonta is offline
Senior Metalhead
 
Join Date: Oct 2002
Location: west of appilachia
Posts: 265
Send a message via MSN to damonta
Kreator-Toxic Trace

Does any body have this? I'm getting ready to get the CD.
Reply With Quote
  #2  
Old 2002-12-24, 11:36
Ben Wrangle Ben Wrangle is offline
Metalhead
 
Join Date: Nov 2002
Location: São Paulo/SP - Brazil
Posts: 60
Send a message via ICQ to Ben Wrangle
#-----------------------------------------------------------------------------#
#-- File created with Instab - http://www.pconline.com/~smcarey/instab.html --#
#-----------------------------------------------------------------------------#

Author/Artist: KREATOR
Title: Toxic Trace
Album: Terrible Certainty
Transcribed by: Baggalut
Email: Baggalut@yahoo.de

You got to be really familiar with the song!
But i think, this one comes really near to the original !

------------------------------------------------------------------------------
------------------------------------------------------------------------------
------------------------------------------------------------------------------
--7-7-----------------------------7-6-------------9---------------------------
--7-7-----------------------------8-7-------------9---------7-6-9-7-----------
--5-5-5-5-5-5-5-5-5-5-5-5-666666------5-5-5-5-5-5-7---6-9-6-------------------
Intro

------------------------------------------------------------------------------
------------------------------------------------------------------------------
------------------------------------------------------------------------------
--7-7----------------------------7-6--------------9---------------------------
--7-7----------------------------8-7--------------9---------7-6-9-7-----------
--5-5-5-5-5-5-5-5-5-5-5-5-666666------5-5-5-5-5-5-7---6-9-6---------9-8-11-9--


------------------------------------------------------------------------------
------------------------------------------------------------------------------
------------------------------------------------------------------------------
------------------------------------------------------------------------------
-9-8-11-9---------------------------------------------------------------------
------------------------------------------------------------------------------
Intro with a litte Difference at the end

------------------------------------------------------------------------------
------------------------------------------------------------------------------
------------------------------------------------------------------------------
--7-7----------------------------7-6--------------9---------------------------
--7-7----------------------------8-7--------------9---------7-6-9-7-----------
--5-5-5-5-5-5-5-5-5-5-5-5-666666------5-5-5-5-5-5-7---6-9-6---------9-8-11-9--


------------------------------------------------------------------------------
------------------------------------------------------------------------------
------------------------------9-----------------------------------------------
----------9-7-----------------9-----------------------------------------------
--------------9-10-9-7-9-10-7-7-----------------------------------------------
-9-8-11-9---------------------------------------------------------------------
again a litte different...

------------------------------------------------------------------------------
------------------------------------------------------------------------------
------------------------------------------------------------------------------
------1---2-------------------------------------------------------------------
-2----1---2---2222----------------2222222233335-------------------------------
-00000-000-000----3333333344443333--------------------------------------------
Mainriff part one, played very fast !

------------------------------------------------------------------------------
------------------------------------------------------------------------------
------------------------------------------------------------------------------
------1---2---------------------------------2---------------------------------
-2----1---2---22223333333444433333--------------------------------------------
-00000-000-000--------------------1111111131----------------------------------
Mainriff part two, again very fast !

------------------------------------------------------------------------------
------------------------------------------------------------------------------
------------------------------------------------------------------------------
------------------------------------------------------------------------------
-2---------1---------4-3------------------------------------------------------
-0---------1---------4-3------------------------------------------------------
a break before the lyrics are coming up !

------------------------------------------------------------------------------
------------------------------------------------------------------------------
------------------------------------------------------------------------------
-7-----7-----7---9-----7-----7--------6---7-8---5-----------------------------
-8-888-8-888-8-8-8-888-8-888-8-8-55555-555-5-555------------------------------
------------------------------------------------------------------------------
The refrain: Termination in every place...

------------------------------------------------------------------------------
------------------------------------------------------------------------------
------------------------------------------------------------------------------
-7-----7-----7---9-----7-----7-------------------------------------4----------
-8-888-8-888-8-8-8-888-8-888-8-8-11111111221111111122111111111111111----------
------------------------------------------------------------------------------
everything will decay...

------------------------------------------------------------------------------
------------------------------------------------------------------------------
-------------------------------------------------4-3-2-1----------------------
--------------------------------2-1-------------5-4-3-2-----------------------
-2-2----------------------------3-2-------2-----------------------------------
-0-0-0-0-0-0-0-0-0-0-0-0-111111-----0-0-0-0-0-0-------------------------------
such as the Intro Riff but played on E

------------------------------------------------------------------------------
------------------------------------------------------------------------------
------------------------------------------------------------------------------
-6-------6----5-------5-----4-------5-5-5-5-----------------------------------
-7-------7----6-------6-----5-------3-3-3-3-2---------------------------------
----------0-0-----------0-0-----------------0---------------------------------
Breakpart with this stomping Basedrum...

------------------------------------------------------------------------------
------------------------------------------------------------------------------
------------------------------------------------------------------------------
--5-5-5---------4-5-----------------------------------------------------------
--3-3-3---2-4-5-2-3-5-4-2-----------------------------------------------------
----------0-2-3-----3-2-0-----------------------------------------------------
without exception, devastate all.., only the solo to come...
__________________
"W"

UP THE IRONS!!!




"Patana neyua shouy, shouy motuko."
Steve Rhoadies (Married With Children)
Reply With Quote
Reply


Thread Tools Search this Thread
Search this Thread:

Advanced Search
Rate This Thread
Rate This Thread:

Posting Rules
You may not post new threads
You may not post replies
You may not post attachments
You may not edit your posts

vB code is On
Smilies are On
[IMG] code is Off
HTML code is Off
Forum Jump



All times are GMT -5. The time now is 05:04.


========

Contact Us | Privacy Policy | Disclaimer
Copyright © 2001-2009 MetalTabs.com. All Rights Reserved.
Powered by vBulletin
Copyright ©2000 - 2009, Jelsoft Enterprises Ltd.