MetalTabs.com - your source for Metal tabs
Home Forum What's New Submit a Tab FAQ Links Contact Us Link to Us


Go Back   MetalTabs.com Forum > Tabs > Tab Questions & Requests
User Name
Password


Reply
 
Thread Tools
  #41  
Old 2006-12-22, 14:38
Break Zero Break Zero is offline
New Blood
 
Join Date: Dec 2005
Posts: 33
Hate to be a pain in the ass about it, but could someone PLEEEEAASSSEEE try "Time After Time"? The song I really wanna get down from that album, although I do understand it is a pain in the ass. I got the song if anyone needs it.

Other than that, awesome tabs everyone has made. This is such a fun album to shred to on guitar
Reply With Quote
  #42  
Old 2006-12-27, 17:41
Hidrio's Avatar
Hidrio Hidrio is offline
Supreme Metalhead
 
Join Date: Jan 2006
Location: Jersey (CI) UK
Posts: 709
Send a message via MSN to Hidrio
Quote:
Originally Posted by Break Zero
Hate to be a pain in the ass about it, but could someone PLEEEEAASSSEEE try "Time After Time"? The song I really wanna get down from that album, although I do understand it is a pain in the ass. I got the song if anyone needs it.

Other than that, awesome tabs everyone has made. This is such a fun album to shred to on guitar

I'll have a go in the new year. I'm tempted with some Heathen and Believer as well at the moment so... we shall see.
__________________
Reply With Quote
  #43  
Old 2006-12-27, 23:50
Break Zero Break Zero is offline
New Blood
 
Join Date: Dec 2005
Posts: 33
Quote:
Originally Posted by Hidrio
I'll have a go in the new year. I'm tempted with some Heathen and Believer as well at the moment so... we shall see.


Awesome. that would be most appreciated
Reply With Quote
  #44  
Old 2007-01-05, 21:52
MetalThrashingMad's Avatar
MetalThrashingMad MetalThrashingMad is offline
Death to all but metal!
Forum Leader
 
Join Date: Mar 2004
Location: Highway to the Danger Zone
Posts: 6,026
Quote:
Originally Posted by blunchblack
TOXIK "Think This"

The song is in dropped-D, might actually be Db, with everything down a half-step.

INTRO

e|--------------------------------------------------------------
b|--------------------------------------------------------------
g|--------------7-------------------------------7---------------
d|0-6-0-6-0-6-0-6-0-6-0-6-0-1-2-3-0-6-0-6-0-6-0-6-0-6-0-6-0-1-2
a|0-6-0-6-0-6-0-5-0-6-0-6-0-1-2-3-0-6-0-6-0-6-0-5-0-6-0-6-0-1-2
D|0-6-0-6-0-6-0---0-6-0-6-0-1-2-3-0-6-0-6-0-6-0---0-6-0-6-0-1-2

then the lead guitar hits a harmonic on the 6th fret of the g string
and whammies for the rest of the intro

the last part of the intro is

e|---------
b|---------
g|---------
d|---3---5-
a|--2---4--
D|-3---5---

then for the verses

e|------------------------------------------------
b|------------------------------------------------
g|------------------------------------------------
d|-0-1-0---0--0-0-1-0---0--0-0-1-0--0-0---3---5-
a|-0-1-0---0--0-0-1-0---0--0-0-1-0--0-0--2---4--
D|-0-1-0---0--0-0-1-0---0--0-0-1-0--0-0-3---5---

then right before the chorus

e|-------------------
b|--------------------
g|--------------------
d|-7-/-7--------------
a|-5-/-6--------------
D|-------0-0-0-0-0-0-

repeat and end with

e|---------
b|---------
g|---------
d|---3---5-
a|--2---4--
D|-3---5---

e|---------
b|---------
g|---------
d|-------34
a|-5-6-78--
D|---------

chorus

e|-------------------------------------------------------
b|-------------------------------------------------------
g|---7-----5-----7-----10-------13----7-----5------------
d|---7-----5-----7-----10-------12----7-----5----------34
a|---5-----3-----5-----8--------11----5-----3----5-6-78--
D|-0---6-0---4-0---6-0----9--0-0----0---6-0---4----------

at the end of the chorus, play the pre-chorus part in reverse

I can tab the pre-solo (watch it, you eat it, consume it...)
but I haven't listened to the record in a while so I'm not sure. As far as the solo is concerned, good luck.

You're the man I'll see what I can do for this one
__________________
Quote:
Originally Posted by Amadeus
"Ja mein little poodle, I will hang you by your nipples in my garage,
Reply With Quote
  #45  
Old 2007-01-05, 23:34
Hidrio's Avatar
Hidrio Hidrio is offline
Supreme Metalhead
 
Join Date: Jan 2006
Location: Jersey (CI) UK
Posts: 709
Send a message via MSN to Hidrio
^It's a start.



So here's what we've come up with so far for Shotgun Logic. Thought i'd just put it together a bit more. The interlude at 3:00ish sounds tricky.


0:12
|-----------------------------------|--------------------------------|
|-----------------------------------|--------------------------------|
|----------------------9---8--------|--------------------------------|
|--------------8---7-----------8----|-9---7---8---6---7---5---6---8-|
|-0-0-7-0-6-0---0---0---0---0---0--|---0---0---0---0---0---0---0-6-|
|------------------------------------|--------------------------------|


0:28
|------------------------------------|--------------------------------|
|----------------------12--11-------|--------------------------------|
|--------------10--9---9---8---10---|11--9---10--8---9---7---8------|
|-----9---8----8---7-----------8----|-9---7---8---6---7---5---6---8-|
|-0-0-7-0-6-0---0---0---0---0---0--|---0---0---0---0---0---0---0-6-|
|------------------------------------|--------------------------------|


0:36
|------------------------------------------------------------------------------------|
|------------------------------------------------------------------------------------|
|--8-----8-----9--------11\--------11\-----8-----8-----7---------11\--------11\----|
|--6---x-6---x-7--------12\--------12\-----6---x-6---x-5---------12\--------12\----|
|--4---x-4---x-5----xxxx-------xxxx--------4---x-4---x-3-----xxxx--------xxxx-------|
|------------------------------------------------------------------------------------|


|------------------------------------------------------------------------------------|
|------------------------------------------------------------------------------------|
|--8-----8-----9--------11\--------11\-----8-----8-----7--------7--7--7------------|
|--6---x-6---x-7--------12\--------12\-----6---x-6---x-5--------5--5--5-------------|
|--4---x-4---x-5----xxxx-------xxxx--------4---x-4---x-3--------3--3--3------------|
|------------------------------------------------------------------------------------|


|---------------------------------------------------------------------------------------------------|
|---------------------------------------------------------------------------------------------------|
|---------------------------------------------------------------------------------------------------|
|-5-----5-----4----------------------8-----8-----7-------------------------------------------------|
|-3-----3-----2----------------------6-----6-----5--------------------3-----3-----3------3--3--3--|
|-1-----1-----0----------------------4-----4-----3--------------------1-----1-----1------1--1--1--|


0:51
|-----------------------|---------------------|
|-----------------------|---------------------|
|-----------------------|---------------------|
|-----------------------|------------8-7-6----|
|----10-8---7-8-----10-|----10-8---6-5-4-----|
|-00-8--6-0-5-6-000-8-|-00-8--6-0-------654-|


1:06
|-------------|--------------------|
|-------------|--------------------|
|-------------|--------------------|
|----5--------|----5-----8--7--6--|
|-7--3--6-----|-7--3--6--6--5--4--|
|-5-----4-----|-5-----4-----------|


|-------------|-------------------|
|-------------|-------------------|
|-------------|-------------------|
|----5--------|----5-----8--7--6--|
|-7--3--6--/\-|-7--3--6--6--5--4--|
|-5-----4-----|-5-----4-----------|

1:14
|--------------------|-------------------|
|--------------------|-------------------|
|--------------------|-------------------|
|--------------------|-------------------|
|-----333------------|-----333----6-5-4-|
|-555----4444444444-|-555-----44-------|


|--------------------|-------------------|
|--------------------|-------------------|
|--------------------|-------------109-8-|
|--------------------|-------------8-7-6-|
|-----333------------|-----333----6-5-4-|
|-555----4444444444-|-555-----44-------|
__________________
Reply With Quote
  #46  
Old 2007-01-06, 11:57
MetalThrashingMad's Avatar
MetalThrashingMad MetalThrashingMad is offline
Death to all but metal!
Forum Leader
 
Join Date: Mar 2004
Location: Highway to the Danger Zone
Posts: 6,026
Been working on Think This The rest consists of crazier shit I can't figure out.


Code:
Tuning: Dropped D Intro |---------------------| |---------------------| |---------------------| |---6---------6-------| |---6---------6-------| |-0-6-------0-6-------| |--------------------------------------------------------------| |--------------------------------------------------------------| |--------------7-------------------------------7---------------| |--------------6-------------------------------6---------------| |0-6-0-6-0-6-0-5-0-6-0-6-0-1-2-3-0-6-0-6-0-6-0-5-0-6-0-6-0-1-2-| |0-6-0-6-0-6-0---0-6-0-6-0-1-2-3-0-6-0-6-0-6-0---0-6-0-6-0-1-2-| _____________ _____________________________ _____________ |--------------------------------------------------------------| |--------------------------------------------------------------| |--------------7-------------------------------7---------------| |--------------6-------------------------------6---------------| |0-6-0-6-0-6-0-5-0-6-0-6-0-1-2-3-0-6-0-6-0-6-0-5-0-6-0-6-0-1-2-| |0-6-0-6-0-6-0---0-6-0-6-0-1-2-3-0-6-0-6-0-6-0---0-6-0-6-0-1-2-| let ring |- - - || - - -| |------------------------------------------------------------------------| |------------------------------------------------------------------------| |--------------7-------------------------------7-------------------------| |--------------6-------------------------------6----------------3------6-| |0-6-0-6-0-6-0-5-0-6-0-6-0-1-2-3-0-6-0-6-0-6-0-5-0-6-0-6-----2------5----| |0-6-0-6-0-6-0---0-6-0-6-0-1-2-3-0-6-0-6-0-6-0---0-6-0-6--3------6-------| Riff 1 x2 let ring |- - - || - - -| |----------------------------------------------------------| |----------------------------------------------------------| |----------------------------------------------------------| |-------------------------------------------------3------6-| |-0-1-0---0--0-0-1-0---0--0-0-1-0--0-0-0-1-----2------5----| |-0-1-0---0--0-0-1-0---0--0-0-1-0--0-0-0-1--3------6-------| _____ __________ Riff 2a |-------------------------------------| |-------------------------------------| |-------------------------------------| |-7-/-8---------------7-/-8-----------| |-5-/-6---------------5-/-6-----------| |-------0-0-0000-0-0--------0-0-00000-| ____________ _________ 2b let ring |- - - || - - -| |-------------------------------------| |-------------------------------------| |-------------------------------------| |-7-/-8---------------------3-------6-| |-5-/-6------------------2-------4----| |-------0-0-0000-0-0--3-------6-------| ____________ 2c |-------------------------------------| |-------------------------------------| |-------------------------------------| |-7-/-8---------------7-/-8-----------| |-5-/-6---------------5-/-6-----------| |-------0-0-0000-0-0--------0-0-00000-| ____________ _________ 2b let ring |- - - || - - -| |-------------------------------------| |-------------------------------------| |-------------------------------------| |-7-/-8---------------------3-------6-| |-5-/-6------------------2-------4----| |-------0-0-0000-0-0--3-------6-------| ____________ 2d |--------------------------| |-6-6-/-9-9-/-12-----------| |-4-4-/-7-7-/-10--9--12/13-| |--------------------------| |--------------------------| |--------------------------| | | |--------------------------| |--------------------------| |--------------------------| |-7-7-/-10-10/-13-11-14/15-| |-5-5-/-8--8-/-11----------| |--------------------------| 2 gtrs Riff 3a | - - - - - - - | |------------------------------------|--------------------------------| |------------------------------------|--------------------------------| |---7-----5-----7-----10----------13-|---7-----5--------------2-3-4-5-| |---7-----5-----7-----10----------12-|---7-----5-----3--4-5-6-4-5-6-7-| |---5-----3-----5-----8-----------11-|---5-----3-----5--6-7-8---------| |-0---6-0---4-0---6-0----9--00000----|-0---6-0---4-0------------------| 2 gtrs harmonized 3b | - - - - - - - - - - - - | |-----------------------------------|------------------------------------------| |-----------------------------------|------------------------------------------| |---7-----5-----7-----10---------13-|---7-----5--------------2-3-4-3-2---------| |---7-----5-----7-----10---------12-|---7-----5-----3--4-5-6-4-5-6-5-4-6-5-4-3-| |---5-----3-----5-----8----------11-|---5-----3-----5--6-7-8-----------8-7-6-5-| |-0---6-0---4-0---6-0----9-00000----|-0---6-0---4-0----------------------------| Riff 1 x2 Riff 2a, b, c, b, d Riff 3a Riff 3b Riff 5 let ring | - - | |----------------|----------------|----------------|----------------------| |----------------|----------------|----------------|----------------------| |----------------|----------------|----------------|--------------------0-| |--------5-------|--------5-------|--------5-------|------------------6---| |-6-5----5-------|-5-4----5-------|-4-3----5-------|----------------8-----| |-6-5--0-5-0-0-0-|-5-4--0-5-0-0-0-|-4-3--0-5-0-0-0-|-6-3--5-2--1--0-------| _ _____ _ _____ _ _____ ___ ___ |------------------------------------|--------------------------------| |-----------6------------------------|-------8------------------------| |-----------7------------------------|-------7------------------------| |-0--0--0---8------------------------|-0--0--6------------------------| |-0--0--0----------------------------|-0--0---------------------------| |-0--0--0----------------------------|-0--0---------------------------| |------------------------------------|--------------------------------| |-----8------------------------------|--------------------------------| |-----7------------------------------|-------6--8--10-----------------| |-0---6------------------------------|-7--9--4--6--8------------------| |-0----------------------------------|-5--7---------------------------| |-0----------------------------------|--------------------------------| |------------------------------------|--------------------------------| |------------------------------------|--------------------------------| |------------------------------------|--------------------------------| |------------------------------------|--------------------------------| |------------------------------------|--------------------------------| |------------------------------------|--------------------------------| |------------------------------------|--------------------------------| |------------------------------------|--------------------------------| |------------------------------------|--------------------------------| |------------------------------------|--------------------------------| |------------------------------------|--------------------------------| |------------------------------------|--------------------------------| |---------------------------------------------| |---------------------------------------------| |-7---------------------7----7----7----7----8-| |-7---------------------7----7----7----7----8-| |-5---------------------5----5----5----5----6-| |---0000-0000-0000-0000---00---00---00---00---| ___________________ __ __ __ __
__________________
Quote:
Originally Posted by Amadeus
"Ja mein little poodle, I will hang you by your nipples in my garage,

Last edited by MetalThrashingMad : 2007-02-20 at 18:58.
Reply With Quote
  #47  
Old 2007-01-06, 20:28
Hidrio's Avatar
Hidrio Hidrio is offline
Supreme Metalhead
 
Join Date: Jan 2006
Location: Jersey (CI) UK
Posts: 709
Send a message via MSN to Hidrio
i should mreallly read this ntomorrowm, burt for now yeahhh TOXIK
__________________
Reply With Quote
  #48  
Old 2007-01-09, 16:47
MetalThrashingMad's Avatar
MetalThrashingMad MetalThrashingMad is offline
Death to all but metal!
Forum Leader
 
Join Date: Mar 2004
Location: Highway to the Danger Zone
Posts: 6,026
__________________
Quote:
Originally Posted by Amadeus
"Ja mein little poodle, I will hang you by your nipples in my garage,
Reply With Quote
  #49  
Old 2007-01-15, 17:40
Hidrio's Avatar
Hidrio Hidrio is offline
Supreme Metalhead
 
Join Date: Jan 2006
Location: Jersey (CI) UK
Posts: 709
Send a message via MSN to Hidrio
Well. Shit. I just listened to 'Time After Time' at half the speed and it's fucking tough shit.

Here's something to keep you entertained.

**Copy it into notepad so it doesn't look like shit**

Code:
|------------------------------------------------------------------| |------------------------------------------------------------------| |------------------------------------------------------------------| |------------------------------------------------------------------| |------------------------------------------------------------------| |-0000000000000000111111111111111122222222222222223333333333333333-| ................................................................ |----------------------------------| |----------------------------------| |----------------------------------| |----------------------------------| |-6--------------------------------| |-4--------------------------------| | | |-16171416--14---------------------| |---------17--1617141612?14?-------| ...... | |-------------------------?14?-----| |----------------------------------| |----------------------------------| |----------------------------------| |------------------------------------------------------------------| |------------------------------------------------------------------| |---------------------------------------6-------4------------------| |-----------------6666666666666666444444--333333--12---24624-2-----| |---------------66----------------------------------246-----6-42---| |-44444444447777---------------------------------------------------| |------------------------------------------------------------------| |------------------------------------------------------------------| |---------------------------------------6-------4---------6---8----| |-----------------6666666666666666444444--333333--2-------4---6----| |---------------66----------------------------------------2---4----| |-44444444447777---------------------------------------------------|
__________________

Last edited by MetalThrashingMad : 2007-01-20 at 21:00.
Reply With Quote
  #50  
Old 2007-01-16, 11:38
Break Zero Break Zero is offline
New Blood
 
Join Date: Dec 2005
Posts: 33
Hell yes. Good job so far dude
Reply With Quote
  #51  
Old 2007-02-08, 15:00
Break Zero Break Zero is offline
New Blood
 
Join Date: Dec 2005
Posts: 33
So I'm hoping everyones heard the news by now?
Reply With Quote
  #52  
Old 2007-02-08, 17:45
MetalThrashingMad's Avatar
MetalThrashingMad MetalThrashingMad is offline
Death to all but metal!
Forum Leader
 
Join Date: Mar 2004
Location: Highway to the Danger Zone
Posts: 6,026
Quote:
Originally Posted by Break Zero
So I'm hoping everyones heard the news by now?

What hearsay have you heard?
__________________
Quote:
Originally Posted by Amadeus
"Ja mein little poodle, I will hang you by your nipples in my garage,
Reply With Quote
  #53  
Old 2007-02-08, 20:25
Break Zero Break Zero is offline
New Blood
 
Join Date: Dec 2005
Posts: 33
Quote:
Originally Posted by MetalThrashingMad
What hearsay have you heard?


Why, the reuniting of Toxik, of course!

All is now right in the world...
Reply With Quote
  #54  
Old 2007-02-08, 21:01
MetalThrashingMad's Avatar
MetalThrashingMad MetalThrashingMad is offline
Death to all but metal!
Forum Leader
 
Join Date: Mar 2004
Location: Highway to the Danger Zone
Posts: 6,026
Quote:
Originally Posted by Break Zero
Why, the reuniting of Toxik, of course!

All is now right in the world...

I heard first hand that they had a jam session or two and a reunion was possible

Where ya gettin your info from?
__________________
Quote:
Originally Posted by Amadeus
"Ja mein little poodle, I will hang you by your nipples in my garage,
Reply With Quote
  #55  
Old 2007-02-09, 01:33
Break Zero Break Zero is offline
New Blood
 
Join Date: Dec 2005
Posts: 33
Blabbermouth posted about it, plus I'm friended to the MySpace page.
I'd probably hear about it somehow anyway, seeing as I live about 45 minutes from Westchester.
Reply With Quote
  #56  
Old 2007-02-20, 03:18
Break Zero Break Zero is offline
New Blood
 
Join Date: Dec 2005
Posts: 33
Anybody still happen to be working on anything from the album?
Reply With Quote
  #57  
Old 2007-02-20, 17:37
MetalThrashingMad's Avatar
MetalThrashingMad MetalThrashingMad is offline
Death to all but metal!
Forum Leader
 
Join Date: Mar 2004
Location: Highway to the Danger Zone
Posts: 6,026
I'm gonna try to finish Think This sometime.
__________________
Quote:
Originally Posted by Amadeus
"Ja mein little poodle, I will hang you by your nipples in my garage,
Reply With Quote
  #58  
Old 2007-02-20, 19:01
MetalThrashingMad's Avatar
MetalThrashingMad MetalThrashingMad is offline
Death to all but metal!
Forum Leader
 
Join Date: Mar 2004
Location: Highway to the Danger Zone
Posts: 6,026
Hirdio, wanna take a look at that Think This tab? :/
__________________
Quote:
Originally Posted by Amadeus
"Ja mein little poodle, I will hang you by your nipples in my garage,
Reply With Quote
  #59  
Old 2007-02-20, 19:54
Hidrio's Avatar
Hidrio Hidrio is offline
Supreme Metalhead
 
Join Date: Jan 2006
Location: Jersey (CI) UK
Posts: 709
Send a message via MSN to Hidrio
Where are you up to on it now?
__________________
Reply With Quote
  #60  
Old 2007-02-20, 22:08
Break Zero Break Zero is offline
New Blood
 
Join Date: Dec 2005
Posts: 33
I got the rerelease on order from Displeased, I'm thinking of taking a stab at There Stood The Fence when it arrives.

Hidiro, you wouldn't happen to have made any progress with Time After Time, have you?
Reply With Quote
Reply


Thread Tools

Posting Rules
You may not post new threads
You may not post replies
You may not post attachments
You may not edit your posts

vB code is On
Smilies are On
[IMG] code is Off
HTML code is Off
Forum Jump



All times are GMT -5. The time now is 13:36.


========

Contact Us | Privacy Policy | Disclaimer
Copyright © 2001-2009 MetalTabs.com. All Rights Reserved.
Powered by vBulletin
Copyright ©2000 - 2009, Jelsoft Enterprises Ltd.