MetalTabs.com - your source for Metal tabs
Home Forum What's New Submit a Tab FAQ Links Contact Us Link to Us


Go Back   MetalTabs.com Forum > Tabs > Tab Questions & Requests
User Name
Password


Reply
 
Thread Tools
  #21  
Old 2006-04-13, 07:14
FilthyCadaver FilthyCadaver is offline
New Blood
 
Join Date: Sep 2005
Posts: 19
How about some Drudkh from the new album? Or Sunwheel maybe?
Reply With Quote
  #22  
Old 2006-04-13, 07:23
Robbie Filth's Avatar
Robbie Filth Robbie Filth is offline
The Man Who Is, MGI.
 
Join Date: Jul 2004
Posts: 2,216
Send a message via MSN to Robbie Filth
Quote:
Originally Posted by nephren-ka
I do want some stuff from Immortals Sons of Northern Darkness but w/e.

Surely that album has already been covered?

I know i tabbed a couple of songs from that one.
__________________
Quote:
Originally Posted by ImBored
I feel a bit arabic spending 30 minutes in the toilet.
Reply With Quote
  #23  
Old 2006-04-13, 07:34
Kalmahswamp's Avatar
Kalmahswamp Kalmahswamp is offline
Post-whore
 
Join Date: Dec 2004
Location: Naples, FL
Posts: 1,916
Send a message via AIM to Kalmahswamp Send a message via MSN to Kalmahswamp
Can you tab some Dimmu Borgir, Cradle of Filth, and Children of Bodom????
Reply With Quote
  #24  
Old 2006-04-13, 08:00
metal_monkey's Avatar
metal_monkey metal_monkey is offline
Post-whore
 
Join Date: Dec 2005
Location: Australia
Posts: 1,156
children of bodom isnt black metal
__________________
Quote:
Originall Posted By problematic
Im a quadraplegic.

Youve made me cry


Quote:
Originally Posted by problematic
Metal Monkey: retarded comments galore.

RIP this guy
Reply With Quote
  #25  
Old 2006-04-13, 08:05
Kalmahswamp's Avatar
Kalmahswamp Kalmahswamp is offline
Post-whore
 
Join Date: Dec 2004
Location: Naples, FL
Posts: 1,916
Send a message via AIM to Kalmahswamp Send a message via MSN to Kalmahswamp
O RLY?
Reply With Quote
  #26  
Old 2006-04-13, 08:32
metal_monkey's Avatar
metal_monkey metal_monkey is offline
Post-whore
 
Join Date: Dec 2005
Location: Australia
Posts: 1,156
yes really
__________________
Quote:
Originall Posted By problematic
Im a quadraplegic.

Youve made me cry


Quote:
Originally Posted by problematic
Metal Monkey: retarded comments galore.

RIP this guy
Reply With Quote
  #27  
Old 2006-04-13, 08:49
ImBored's Avatar
ImBored ImBored is offline
Supreme Metalhead
 
Join Date: Aug 2005
Location: UK
Posts: 644
Send a message via MSN to ImBored
jesus christ.
Metal monkey, next time you think its a good idea to post, walk away from your keyboard.
__________________
even in my sleep i hack the gibson
Reply With Quote
  #28  
Old 2006-04-13, 12:42
nephren-ka nephren-ka is offline
New Blood
 
Join Date: Apr 2006
Posts: 43
Quote:
Surely that album has already been covered?


Very little and not very well.
Reply With Quote
  #29  
Old 2006-04-17, 17:25
Weltmacht Weltmacht is offline
New Blood
 
Join Date: Apr 2006
Location: The Netherlands
Posts: 16
Nyktalgia - Exitus Letalis
Mortifera - La Revenant
Nagelfar - Seelenland
Forgotten Woods
Reply With Quote
  #30  
Old 2006-04-17, 19:02
Necro_Butcher's Avatar
Necro_Butcher Necro_Butcher is offline
Post-whore
 
Join Date: Jun 2003
Location: PEI, Canada
Posts: 1,103
Send a message via MSN to Necro_Butcher
i could go for some Lutomysl(sp) if yer Kvlt enough to have heard them
__________________
Quote:
Originally Posted by k13m
so i guess its kinda nice for leads but i thought it sucked ass for soloing
Reply With Quote
  #31  
Old 2006-04-17, 19:40
Frozen Soul's Avatar
Frozen Soul Frozen Soul is offline
Senior Metalhead
Banned
 
Join Date: Jan 2005
Location: I believe in blood and honor, blood and honor C18
Posts: 387
Mutiilation - Magical Shadows of a Tragic Past
Vlad Tepes - Raven's Hike, Drink the Poetry of Celtic Disciple
Sacramentum - Blood Shall be Spilled
Reply With Quote
  #32  
Old 2006-04-18, 07:08
Ivehetz Ivehetz is offline
New Blood
 
Join Date: Apr 2006
Location: Belgium
Posts: 11
what about some Armagedda (the 7" & last album)?
Reply With Quote
  #33  
Old 2006-04-18, 08:26
Weltmacht Weltmacht is offline
New Blood
 
Join Date: Apr 2006
Location: The Netherlands
Posts: 16
Yeah, tabs from the "Ond Spiritism" album from Armagedda would be great!

Oh, I forgot to mention Kvist.
Especially "Forbannet Vaere Jorden Jeg Går På" and "Mork, Skjebnesvanger Og Erotisk Lokkende"
Reply With Quote
  #34  
Old 2006-04-18, 08:32
Weltmacht Weltmacht is offline
New Blood
 
Join Date: Apr 2006
Location: The Netherlands
Posts: 16
Quote:
Originally Posted by humancorpse
Probably to "comercial" for a true grim black metaler

There are plenty of people who tab Immortal and the other bands he mentioned. This is a thread for underground black metal tab requests not for starting a discussion about Immortal being black metal or not.
Reply With Quote
  #35  
Old 2006-04-18, 09:44
humancorpse's Avatar
humancorpse humancorpse is offline
Post-whore
 
Join Date: Jan 2005
Location: Norway
Posts: 1,383
Send a message via AIM to humancorpse Send a message via MSN to humancorpse
Alright then, you`ve got a point, my bad.
__________________
Reply With Quote
  #36  
Old 2006-04-18, 09:45
humancorpse's Avatar
humancorpse humancorpse is offline
Post-whore
 
Join Date: Jan 2005
Location: Norway
Posts: 1,383
Send a message via AIM to humancorpse Send a message via MSN to humancorpse
Quote:
Originally Posted by ImBored
jesus christ.
Metal monkey, next time you think its a good idea to post, walk away from your keyboard.

That is going in my sig, pretty much because it`s a really good idea.
__________________
Reply With Quote
  #37  
Old 2006-04-18, 10:34
Ivehetz Ivehetz is offline
New Blood
 
Join Date: Apr 2006
Location: Belgium
Posts: 11
Red face

Also, some DSO would be highly appreciated..
As well as 2nd Craft album
Reply With Quote
  #38  
Old 2006-04-18, 11:49
Robbie Filth's Avatar
Robbie Filth Robbie Filth is offline
The Man Who Is, MGI.
 
Join Date: Jul 2004
Posts: 2,216
Send a message via MSN to Robbie Filth
Quote:
Originally Posted by nephren-ka
Very little and not very well.

You can't say my stuff was bad!!!!

And Craft would still be cool!!!!
__________________
Quote:
Originally Posted by ImBored
I feel a bit arabic spending 30 minutes in the toilet.
Reply With Quote
  #39  
Old 2006-04-19, 15:08
lohryx5 lohryx5 is offline
New Blood
 
Join Date: Sep 2005
Posts: 46
I thought I posted a link to this Craft tab before. This is NOT my tab, it is someone else's from doomish.com. I agree, some DSO would be great, but some Blut Aus Nord - The Work Which Transforms God would be even better.


Band: Craft
Album: Total Soul Rape
Song: Death To Planet Earth

Copyright (c) The Black Hand Records, 2000
Version 1.0 – 1/6/2005 – 3/6/2005

Transcribed By: Andrew Collyer
Email: immortalshadow666@gmail.com


Check out Doomish.Com With more
Doom/Death/Blackmetal Tabs,Metal news, Reviews, Articles
http://www.doomish.com


Code:
. - palm mute / - slide up to
\ - slide down to x – Staccato
h - hammer on p - pull off
, - slight palm mute () - ghost note, sustained note
" - tremolo note <> - Trill
L – left channel only R – right channel only
* - see comment

Suffixes for bend
f - full bend h - half bend
q - quarter bend t - tap bend
^ - Hold bend r - release bend
~ - vibrato bend

Suffixes for harmonic
ph - pinched harmonic n – natural/artificial harmonic


Tuning D G C F A D

Note: It is very hard to make an exact tablature of this song. The
fuzzy production makes stuff very hard to tell, so some parts may be
off. Best of luck to you.

For my metal bro Ricardo, sorry for the delay on this one mate!!

Riff 1a (0:02)
|------------------------------------------------------|
|------------------------------------------------------|
|------------------------------------------------------|
|-----------------8--8--------------8---------7///\\\--| gtr 1
|-----------------6--6--------------6------------------|
|-0-0-0-0-0-0-0-0-------0-0-0-0-0-0---0-0-0-0----------|
. . . . . . . . . . . . . . . . . .

|------------------------------------------------------|
|------------------------------------------------------|
|------------------------------------------------------|
|---------------------------------------------7///\\\--| gtr 2
|------------------------------------------------------|
|-0-0-0-0-0-0-0-0-0-0-0-0-0-0-0-0-0-0-0-0-0-0----------|
. . . . . . . . . . . . . . . . . . . . . .

Riff 1b (0:06)
|--------------------------------------------------|
|--------------------------------------------------|
|--------------------------------------------------|
|-----------------8--8--------------8--------------| gtr 1
|-----------------6--6--------------6--------------|
|-0-0-0-0-0-0-0-0-------0-0-0-0-0-0---0-0-0-0-4ph--|
. . . . . . . . . . . . . . . . . .

|--------------------------------------------------|
|--------------------------------------------------|
|--------------------------------------------------|
|--------------------------------------------------| gtr 2
|--------------------------------------------------|
|-0-0-0-0-0-0-0-0-0-0-0-0-0-0-0-0-0-0-0-0-0-0-4ph--|
. . . . . . . . . . . . . . . . . . . . . .

Riff 1a x 1 (0:09)
Riff 1b x 1 (0:12)
Riff 1a x 1 (0:15)
Riff 1b x 2 (0:19)
Riff 1a x 1 (0:25)

Riff 2 (0:28) play 4 times * - hard to hear
|--------------------------|
|--------------------------|
|--------------------------|
|-8"--9-8"------------7"---|
|-6"----6"---10"--9"--5"---|
|-------------8"--7"-------|
*

Riff 3 (0:54) play 8 times
|-------------------------|
|-------------------------|
|-------------------------|
|----------7"--------6"---|
|------6"--------6"-------|
|-0"----------0"----------|


Riff 4 (1:20) play 4 times
|---------------------------------|
|---------------------------------|
|---------------------------------|
|-------4--4-4--4-3-3-3--3--3--3--|
|-2--2--2--2-2--2\1-1-1--1--1--1--|
|-0--0----------------------------|


Riff 5 (1:48) play 4 times
|---------------------------------------|
|---------------------------------------|
|---------------------------------------|
|------7--7-7--7--7-6-6-6--6--6--6------|
|-5--5-5--5-5--5--5\4-4-4--4--4--4-8----|
|-3--3-----------------------------6\\--|

Riff 6 (2:16) play 4 times
|-------------------------------------------------------|
|-----6--------------6--------------7----------------8--|
|---9---9----------9---9----------8---8----------6------|
|-7--------------7--------------------------------------|
|-------------------------------6--------------4---4----|
|-------------------------------------------------------|

Feedback for a bit at (3:06)

Riff 7 (3:13) play 4 times
|--------------------------------------|
|--------------------------------------|
|--------------------------------------|
|---------8---8-------8-------7///\\\--|
|---7---7-6---6---7---6---7------------|
|-0---0-----0---0---0---0---0----------|


Riff 3 x 1 (3:32)

Riff 8 (4:03)
[x2] [x2]
|----------------------|-------------------------|
|----------------------|-------------------------|
|----------------------|-------------------------|
|---------7"--------6"-|---------7"--------6"----|
|-3"--6"-----3"--6"----|-----6"---------6"-------|
|----------------------|-5"---------5"-----------|

Riff 4 x 1/2 (4:16)

End



Check out Doomish.Com With more
Doom/Death/Blackmetal Tabs,Metal news, Reviews, Articles
http://www.doomish.com
Reply With Quote
  #40  
Old 2006-04-19, 15:20
LordofStorms's Avatar
LordofStorms LordofStorms is offline
Post-whore
 
Join Date: Jan 2005
Location: Alabama
Posts: 1,942
Quote:
Originally Posted by Robbie Filth
You can't say my stuff was bad!!!!

Not that I've tabbed anything on this site,but your SOND tabs need some work.They suck.BAD.
Reply With Quote
Reply


Thread Tools

Posting Rules
You may not post new threads
You may not post replies
You may not post attachments
You may not edit your posts

vB code is On
Smilies are On
[IMG] code is Off
HTML code is Off
Forum Jump



All times are GMT -5. The time now is 13:12.


========

Contact Us | Privacy Policy | Disclaimer
Copyright © 2001-2009 MetalTabs.com. All Rights Reserved.
Powered by vBulletin
Copyright ©2000 - 2009, Jelsoft Enterprises Ltd.