MetalTabs.com - your source for Metal tabs
Home Forum What's New Submit a Tab FAQ Links Contact Us Link to Us


Go Back   MetalTabs.com Forum > Musicians > Guitar Zone
User Name
Password


Reply
 
Thread Tools Search this Thread Rate Thread
  #21  
Old 2005-04-21, 17:24
ShredIsNotDead ShredIsNotDead is offline
Post-whore
 
Join Date: Mar 2004
Posts: 1,487
This may have been answered but what do you do when you are descending, same thing or reverse? Let's say we are using the 1234 pattern. Would you descend with 4321 or 1234? How about 2134; would you descend with 4312 or 2134?
Reply With Quote
  #22  
Old 2005-04-21, 17:28
guitar_demon's Avatar
guitar_demon guitar_demon is offline
MotörCat
 
Join Date: Oct 2002
Location: &#26132&#26132
Posts: 7,547
Send a message via AIM to guitar_demon Send a message via MSN to guitar_demon
i would go backwards so
1234 up then 4321 down
__________________
POW MIA NEVER FORGOTTEN
no one can tell you to turn down your amp unless they're of higher skill or in your band
Why not make shit up as we go-fox
Ok. You're literate, intelligent and funny-FBS

"Calm down, Edgar back in your cage"-far beyond sane
"you suck the cat-avatar-guy doesnt"-The Doc
Now My Legacy Shall Live Forever!!
Reply With Quote
  #23  
Old 2005-04-21, 17:37
h4x5k8's Avatar
h4x5k8 h4x5k8 is offline
Post-whore
 
Join Date: Jun 2004
Location: Longmont, CO, USA
Posts: 1,978
Send a message via ICQ to h4x5k8 Send a message via AIM to h4x5k8 Send a message via MSN to h4x5k8 Send a message via Yahoo to h4x5k8
you could do it both ways, your not always desending on the frets when your going down in strings, so it would be good to practice both ways to build speed for all types of movement
__________________
Reply With Quote
  #24  
Old 2005-06-25, 20:29
basstard basstard is offline
New Blood
 
Join Date: Jun 2005
Posts: 11
this is a thing my teacher calls a retro, im going to use the lydian scale it would be better u learn the scale before practicing this

1|-------------------------------------------------------------------|
2|-------------------------------------------------------------------|
3|----------------------------------------------------------2----2-4-|
4|------------------------------------2----2-3--2-3-5--3-5----5-----|
5|--------------2----2-3--2-3-5--3-5----5--------------------------|
6|-1-3-5---3-5-----5------------------------------------------------|


|----------------------------------3-----3-5---3-5-7---------------|
|------------3-----3-5--3-5-6--5-6----6---------------------------|
|-2-4-5--4-5----5--------------------------------------------------|
|-------------------------------------------------------------------|
|-------------------------------------------------------------------|
|-------------------------------------------------------------------|


the world is sick and fucked

Last edited by basstard : 2005-06-26 at 09:09.
Reply With Quote
  #25  
Old 2005-06-25, 20:41
basstard basstard is offline
New Blood
 
Join Date: Jun 2005
Posts: 11
heres another, a little bit harder, the same lidian scale.

1|-----------------------------------------------------------------------|
2|-----------------------------------------------------------------------|
3|---------------------------------------------------------------------2-|
4|---------------------------------------2-------2-3-----2-3-5--2-3-5---|
5|--------2-------2-3-----2-3-5--2-3-5-----3-5--------5----------------|
6|-1-3-5----3-5--------5------------------------------------------------|

|-------------------------------------------------------3------3-5------|
|---------------------------3------3-5----3-5-6--3-5-6----5-6----------|
|-----2-4-----2-4-5--2-4-5----4-5------5-------------------------------|
|-3-5------5------------------------------------------------------------|
|------------------------------------------------------------------------|
|------------------------------------------------------------------------|

|---3-5-7-------|
|-6-------------|
|---------------|
|---------------|
|---------------|
|---------------|
Reply With Quote
  #26  
Old 2005-06-26, 03:11
davie_gravy's Avatar
davie_gravy davie_gravy is offline
Metal As Fuck!
 
Join Date: Sep 2004
Location: LR AR
Posts: 2,680
Send a message via MSN to davie_gravy Send a message via Yahoo to davie_gravy
nice little run there basstard...sounds good. I think you meant the Lydian Scale though, no biggie...just helpin to keep things straight
__________________
__________________
__________________
__________________
__________________
R.I.P. Dimebag
My Music

BuildTheMusic.com is your #1 FREE online guitar resource center.
Reply With Quote
  #27  
Old 2005-06-26, 08:07
fatdanny's Avatar
fatdanny fatdanny is offline
Post-whore
 
Join Date: Jun 2004
Location: Scotland
Posts: 1,061
Nice exercises guys. I'm going to practice strictly this summer and try to get good. At the moment my primary exercise is this, but not the sweeps on track 4 (yet):
Reply With Quote
  #28  
Old 2005-06-26, 09:08
basstard basstard is offline
New Blood
 
Join Date: Jun 2005
Posts: 11
yep sorry is lydian , anyway heres another.

1|-----------------------------------------------------------------------|
2|------------------------------------------------------------3-----5----|
3|-------------------------------------------2-----4--2-5--4-----5------|
4|-------------------------2-----3---2-5--3-----5-----------------------|
5|---------2----3--2-5--3-----5-----------------------------------------|
6|-1-5--3----5----------------------------------------------------------|


|---------3----5--3-7-----|
|-3-6--5----6-------------|
|-------------------------|
|-------------------------|
|-------------------------|
|-------------------------|
Reply With Quote
  #29  
Old 2005-06-26, 09:19
basstard basstard is offline
New Blood
 
Join Date: Jun 2005
Posts: 11
i allways practice with this

string 1|-------1-3-4--------2-4-5.....----------9-11-12-12-11-9---------|
string 2|1-2-4-------2-3-5-------......9-10-12---------------------12-10-9|

and so on until my fourth finger reaches fret 12, and then go back.
then go up to strings 2 3, then 3 4 and so on.when i finish all the strings i add 10 bpm.

also

string1|--------1-3-5---------2-4-6-.....---------8-10-12|
string2|--1-3-5--------2-4-6--------.....8-10-12---------|

this one can cause u pain in the hand so be carefull


Last edited by basstard : 2005-06-26 at 09:23.
Reply With Quote
  #30  
Old 2005-06-26, 09:23
active corpse fucker's Avatar
active corpse fucker active corpse fucker is offline
Senior Metalhead
 
Join Date: Apr 2005
Location: Hampshire , Uk
Posts: 159
Send a message via MSN to active corpse fucker
this is a string skipping exercise i do at the moment because my string skipping is truly abysmal. Good exercises btw - definitly one for the speed guitarist in us all


Ex1 - A REGULAR picking exercise

|---------------------------------------------6-7-8-9-------------------|
|------------------------------------5-6-7-8-----------8-7-6-5-etc------|
|---------------------------4-5-6-7-------------------------------------|
|------------------3-4-5-6----------------------------------------------|
|----------2-3-4-5------------------------------------------------------|
|--1-2-3-4--------------------------------------------------------------|

Ex2 Using the same format but for string skipping

|-------------------------------7-6-5-4---------------------------------|
|---------------------3-4-5-6-------------------------------------------|
|-----------------------------------------8-7-6-5-----------------------|
|-----------2-3-4-5-----------------------------------------------------|
|--------------------------------------------------9-8-7-6--------------|
|--1-2-3-4--------------------------------------------------------------|


Ex 3 For speed picking strange patterns

|----------5----------------8---------etc-------------------------------|
|---5---------------8---------------------------------------------------|
|-------------6----------------9----------------------------------------|
|-------7---------------10----------------------------------------------|
|-----------------------------------------------------------------------|
|-----------------------------------------------------------------------|

picking pattern should be d u d u
__________________
The female necrophiliac wants her money back
Reply With Quote
  #31  
Old 2005-06-26, 09:50
basstard basstard is offline
New Blood
 
Join Date: Jun 2005
Posts: 11
some 5 string sweep shit.

|----------------9---12-12--9--------------|
|------------10----------------10-----------|
|---------9------------------------9--------| major
|-----11------------------------------11----|
|-12--------------------------------------12|
|--------------------------------------------|

|---------------8--12-12--8-----------------|
|-----------10---------------10-------------|
|--------9-----------------------9----------| minor
|----10-----------------------------10-----|
|-12------------------------------------12-|
|-------------------------------------------|

|--------------8--11-11--8----------------------|
|----------10----------------10-----------------|
|-------8-------------------------8-------------|
|----10------------------------------10---------| diminished
|-12-------------------------------------12-----|
|-----------------------------------------------|


when yuo can do them fast they sound very cool
Reply With Quote
  #32  
Old 2005-06-26, 15:20
davie_gravy's Avatar
davie_gravy davie_gravy is offline
Metal As Fuck!
 
Join Date: Sep 2004
Location: LR AR
Posts: 2,680
Send a message via MSN to davie_gravy Send a message via Yahoo to davie_gravy
Here's a string skipping within arpeggios exercise I do all the time, compliments of John Pertrucci.

Here's the major shape. To do minor just move the 6 on the G string back to the 5th, and the 9 on the high E back to the 8th fret. This pattern sounds cool with delay and intervals of minor 3rd (3 frets).
Code:
E|---------------5-9----------------- B|-----------5---------5------------- G|-------6-----6-----6-----6--------- D|---7-----7-------------7------7---- A|-----7----------------------7------ E|-5-------------------------------5-
__________________
__________________
__________________
__________________
__________________
R.I.P. Dimebag
My Music

BuildTheMusic.com is your #1 FREE online guitar resource center.

Last edited by davie_gravy : 2005-06-26 at 16:25. Reason: Typo
Reply With Quote
  #33  
Old 2005-06-26, 19:25
basstard basstard is offline
New Blood
 
Join Date: Jun 2005
Posts: 11
|------------------------------------------------------------------------|
|------------------------------------------------------------------------|
|------------------------------------------------------------------------|
|------------------------------------------14-15-16-17------------------|
|----------------------------14-15-16-17---------------14-15-16-17-----|
|-14-14-14-14-14-15-16-17----------------------------------------------|


|------------------------------------------------------------------------|
|---------------------------------------------------------14-15-16-17---|
|---------------14-15-16-17----------------14-15-16-17-----------------|
|-14-15-16--17---------------14-15-16-17-------------------------------|
|------------------------------------------------------------------------|
|------------------------------------------------------------------------|

|----------------------------14-15-16-17--18-17-16-15------------------|
|---------------14-15-16-17-----------------------------18-17-16-15----|
|-14-15-16-17-----------------------------------------------------------|
|------------------------------------------------------------------------|
|------------------------------------------------------------------------|
|------------------------------------------------------------------------|

|-19-18-17-16-----------------------------------------------------------|
|---------------19-18-17-16---------------------------------------------|
|-----------------------------19-18-17-16-------------------------------|
|-------------------------------------------19-18-17-16--15-16-17-18---|
|------------------------------------------------------------------------|
|------------------------------------------------------------------------|

|-------------------------------------------|
|-------------------------------------------|
|-------------------------------------------|
|-17-16-15-14------------------------------|
|---------------17-16-15-14----------------|
|-----------------------------17-16-15-14--|

hope it hepls
Reply With Quote
  #34  
Old 2005-06-27, 09:35
h4x5k8's Avatar
h4x5k8 h4x5k8 is offline
Post-whore
 
Join Date: Jun 2004
Location: Longmont, CO, USA
Posts: 1,978
Send a message via ICQ to h4x5k8 Send a message via AIM to h4x5k8 Send a message via MSN to h4x5k8 Send a message via Yahoo to h4x5k8
wow, lots of good practices,
__________________
Reply With Quote
  #35  
Old 2005-06-27, 22:24
basstard basstard is offline
New Blood
 
Join Date: Jun 2005
Posts: 11
strenght


|---------------------------------------------------------------------|
|---------------------------------------------------------------------|
|--------------------------------------------------6h7h9p7p6h7h9----|
|----------------------------------6h7h9p7p6h7h9--------------------|
|-----------------5h7h9p7p5h7h9-------------------------------------|
|-5h7h9p7p5h7h9-----------------------------------------------------|

|--------------------7h9h10p9p7-/-9h10h12p10p9------------------------|
|-7h9h10p9p7h9h10--------------------------------12p10p9h10h12p10p9-|
|------------------------------------------------------------------------|
|------------------------------------------------------------------------|
|------------------------------------------------------------------------|
|------------------------------------------------------------------------|

|--------------------------------------------------------------------|
|--------------------------------------------------------------------|
|-12p10p8h10h12p10p8-----------------------------------------------|
|-----------------------12p10p8h10h12p10p8-------------------------|
|---------------------------------------------12p10p8h10h12p10p8---|
|---------------------------------------------------------------------|

|---------------------|
|---------------------|
|---------------------|
|---------------------|
|---------------------|
|-10p9p7h9h10p8p7---|


enjoy
Reply With Quote
  #36  
Old 2005-06-28, 00:28
davie_gravy's Avatar
davie_gravy davie_gravy is offline
Metal As Fuck!
 
Join Date: Sep 2004
Location: LR AR
Posts: 2,680
Send a message via MSN to davie_gravy Send a message via Yahoo to davie_gravy
^^^
Hey man, nice legato warm-up, even sounds cool
__________________
__________________
__________________
__________________
__________________
R.I.P. Dimebag
My Music

BuildTheMusic.com is your #1 FREE online guitar resource center.
Reply With Quote
  #37  
Old 2005-06-29, 22:40
basstard basstard is offline
New Blood
 
Join Date: Jun 2005
Posts: 11
Reply With Quote
  #38  
Old 2005-07-04, 12:53
Jacob's Avatar
Jacob Jacob is offline
Senior Metalhead
 
Join Date: Aug 2004
Location: North Carolina, USA
Posts: 141
Send a message via AIM to Jacob Send a message via MSN to Jacob
Here we go. I just tabbed this out, and added a metronome. It is set to 120bps but you can increase or lower that. It has the whole set. It repeats 4 times so you can do different picking methods each time. Hope this helps. Allot of stuff to remember but helps. Thanks for the practice btw
Attached Files
File Type: gp4 WorkOut.gp4 (4.4 KB, 170 views)
__________________
RAPE
Reply With Quote
  #39  
Old 2005-07-04, 17:11
OpethFan's Avatar
OpethFan OpethFan is offline
Toast-whore
 
Join Date: Jan 2005
Location: Where the grass is green, and the girls 69.
Posts: 1,473
Send a message via MSN to OpethFan
Quote:
Originally Posted by fatdanny
Nice exercises guys. I'm going to practice strictly this summer and try to get good. At the moment my primary exercise is this, but not the sweeps on track 4 (yet):


Fuck dude its just one massive solo!

Good luck!
__________________
My bands page ^

Think my attitude stinks?? You should smell my fingers.

Quote:
Originally Posted by BOB_ZE_METALLEU
yeah, one night he (BassBehemoth) came with some GHB and he put it in my drink, when i woke up....i lost my hymen....terrible


Reply With Quote
  #40  
Old 2005-07-04, 19:39
YJM04's Avatar
YJM04 YJM04 is offline
Post-whore
 
Join Date: Apr 2005
Location: nowhere,USA
Posts: 1,457
Quote:
Originally Posted by fatdanny
Nice exercises guys. I'm going to practice strictly this summer and try to get good. At the moment my primary exercise is this, but not the sweeps on track 4 (yet):

it didnt seem that hard. just one scale in diff arpeggio forms. that's the only bad thing about shred. usually its only in one scale, just shreded. but seems like a nice warm-up
Reply With Quote
Reply


Thread Tools Search this Thread
Search this Thread:

Advanced Search
Rate This Thread
Rate This Thread:

Posting Rules
You may not post new threads
You may not post replies
You may not post attachments
You may not edit your posts

vB code is On
Smilies are On
[IMG] code is Off
HTML code is Off
Forum Jump



All times are GMT -5. The time now is 14:45.


========

Contact Us | Privacy Policy | Disclaimer
Copyright © 2001-2009 MetalTabs.com. All Rights Reserved.
Powered by vBulletin
Copyright ©2000 - 2009, Jelsoft Enterprises Ltd.