MetalTabs.com - your source for Metal tabs
Home Forum What's New Submit a Tab FAQ Links Contact Us Link to Us


Go Back   MetalTabs.com Forum > Tabs > Tab Questions & Requests
User Name
Password


Reply
 
Thread Tools Search this Thread Rate Thread
  #1  
Old 2002-09-12, 04:18
sprint's Avatar
sprint sprint is offline
Metalhead
 
Join Date: Jun 2002
Posts: 50
Unhappy help completing Deicide tab

I ask for help in completing this (check out attached file) Deicide tab.

My work`s been based only on mp3 file, whose low quality
and Deicide`s super heavy distortion have made me unable
to complete it by myself.

If you`re interested please send a reply with your
correction/complement.

I`m especially unsure about the mini-solo, chorus
and 2nd verse.


!!!!!!!!!!!!!!!!!!!!!!!!!!!!!!!!!!!!!!!!!!!!!!!!!!!!!!!!!!!!!!!!!!!!!!!!!!!!!!!!
(I`ve corrected the attachment - btw now its a HTML format file
with txt extension - for some reason raw txt didn`t work?!)
Attached Files
File Type: txt apocalyptic fear.txt (3.4 KB, 190 views)

Last edited by sprint : 2002-11-26 at 16:41.
Reply With Quote
  #2  
Old 2002-09-12, 04:20
Darkenelf's Avatar
Darkenelf Darkenelf is offline
Supreme Metalhead
 
Join Date: Mar 2002
Location: the cold north
Posts: 625
messed up tab

hey,

can't see a damn in that tab,

all lines look like one big square of notes and lines, can't help ya with that.
__________________
VIKING/FOLK METAL SITE
http://www.vikingblood.net/

Join the hordes!!
Reply With Quote
  #3  
Old 2002-11-25, 16:52
INVERTED's Avatar
INVERTED INVERTED is offline
Pussy Pulverizer
Alumni Staff
 
Join Date: Aug 2001
Location: The Gates of Hell. Come, join us!
Posts: 175
Send a message via AIM to INVERTED
Yeah, I can't see anything either. Save the file under "Notepad" and try adding the file as a new attachment. What song is this?
__________________
You fucking wanker!
Reply With Quote
  #4  
Old 2002-11-26, 12:33
sprint's Avatar
sprint sprint is offline
Metalhead
 
Join Date: Jun 2002
Posts: 50
That`s Apocalyptic Fear from Insineratehymn album.

I`ve uploaded the new attachment, on the off chance here`s also the text version of this pre-tab:





Tuning : EbAbDbGbBbEb


Fig.A / Intro/Ending
Eb:---------------------------------|
Bb:---------------------------------|
Gb:---------------------------------|
Db:---------------------------------|
Ab:-2-6-5-2-3-2-3-5-6-5-2-3-2-3-5-6-|
Eb:-0-4-3-0-1-0-1-3-4-3-0-1-0-1-3-4-|


Fig.B / Verse 1 x 4
Eb:--------------------------------------------------------|
Bb:--------------------------------------------------------|
Gb:--------------------------------------------------------|
Db:--------------------------------------------------------|
Ab:-6---5--------------5---4-------------6---5-------------|
Eb:-4-0-3-0--00000000--3-0-2-0-00000000--4-0-3-0--00000000-|


Eb:-----|--------------------------------|
Bb:-----|--------------------------------|
Gb:-----|--------------------------------|
Db:--3--|--------------------------------|
Ab:--3--|--------------------------------|
Eb:-----|-0..4..3..0..1..0..1..3..4..3..-|

last time with Fig.A instead of ^


Fig.C / Bridge, play each 4 x
Eb:-------------|------------|-------------|--------------|
Bb:-------------|------------|-------------|--------------|
Gb:---------4..-|--------5..-|---------7..-|---------10..-|
Db:-------------|------------|-------------|--------------|
Ab:---------2..-|--------3..-|---------5..-|---------8..--|
Eb:-0..-3..-----|-?..-?..----|-?.. ?..-----|-5..-6..------|


Fig.D.1 / Verse 2 x 2
Eb:------------------------------------------------------|
Bb:------------------------------------------------------|
Gb:------------------------------------------------------|
Db:------------------------------------------------------|
Ab:------------------------------------------------------|
Eb:-8-0-7-8-00000000--8-0-5-6-00000000--8-0-7-8-00000000-|


.2 - 2nd repetition of Fig.D
Eb:----------------------------------------------------------|
Bb:----------------------------------------------------------|
Gb:----------------------------------------------------------|
Db:----------------------------------------------------------|
Ab:-10---9-10----------10---7-8-----------10---9-10----------|
Eb:----0------00000000----0-----00000000-----0------00000000-|


Eb:------|-----------------------------------------------|
Bb:------|-----------------------------------------------|
Gb:------|-----------------------------------------------|
Db:--10--|-----------------------------------------------|
Ab:--10--|---------------------------10-9-5-7-3-5-7-10-9-|
Eb:------|-0..8..7..3..5..1..3..5..--8--7-3-5-1-3-5-8--7-|


Fig.E.1 / "Chorus"
Eb:-----------------------------------------------|
Bb:-----------------------------------------------|
Gb:-----------------------------------------------|
Db:--------8---------5---------2------------------|
Ab:-2-2-2--6--2-2-2--3--2-2-2--0--2-2-3-3-5-5-3-3-|
Eb:-0-0-0-----0-0-0-----0-0-0-----0-0-1-1-3-3-1-1-|


.2 - high part played with Fig.E.1 at the end
w\bar
Eb:----------------------17~-13~-12~----------------24b25\?|
Bb:-----------------10~---------------/15~-13~-14~---------|
Gb:----5~-4~--8~-9~----------------------------------------|
Db:--------------------------------------------------------|
Ab:-6~-----------------------------------------------------|
Eb:--------------------------------------------------------|




Last edited by sprint : 2002-11-27 at 12:43.
Reply With Quote
  #5  
Old 2002-11-27, 02:37
Darkenelf's Avatar
Darkenelf Darkenelf is offline
Supreme Metalhead
 
Join Date: Mar 2002
Location: the cold north
Posts: 625
re:

This looks lots better.
__________________
VIKING/FOLK METAL SITE
http://www.vikingblood.net/

Join the hordes!!
Reply With Quote
  #6  
Old 2002-12-11, 20:31
MeTalManiac555's Avatar
MeTalManiac555 MeTalManiac555 is offline
Supreme Metalhead
 
Join Date: Nov 2002
Location: North Carolina
Posts: 655
Send a message via AIM to MeTalManiac555
Yeah that other thing is all messed up.
__________________
walk through nature's dwelling
hide from obscure trees listening
winter brings gloom, brings remnants of our shadows
twilight casts spells on those who espouse their fate

ice pricks necks like knives, leaving shards of cadaverous skin
tears spout from eyes, shunned from mankind's den
(Prayer For Cleansing/ "A Dead Soal Born")
Reply With Quote
Reply


Thread Tools Search this Thread
Search this Thread:

Advanced Search
Rate This Thread
Rate This Thread:

Posting Rules
You may not post new threads
You may not post replies
You may not post attachments
You may not edit your posts

vB code is On
Smilies are On
[IMG] code is Off
HTML code is Off
Forum Jump



All times are GMT -5. The time now is 07:25.


========

Contact Us | Privacy Policy | Disclaimer
Copyright © 2001-2009 MetalTabs.com. All Rights Reserved.
Powered by vBulletin
Copyright ©2000 - 2009, Jelsoft Enterprises Ltd.