MetalTabs.com - your source for Metal tabs
Home Forum What's New Submit a Tab FAQ Links Contact Us Link to Us


Go Back   MetalTabs.com Forum > Tabs > Tab Questions & Requests
User Name
Password


Reply
 
Thread Tools
  #21  
Old 2005-10-23, 22:59
Dimejandro's Avatar
Dimejandro Dimejandro is offline
New Blood
 
Join Date: Mar 2003
Location: planet caravan
Posts: 35
Send a message via AIM to Dimejandro
yeah actually they do use different tunings on some songs of the album. I believe the only tunings they use on Guilt is D and Dropped C, as you mentioned. So yeah, I guess its most probable that maddening is on Standard D.
__________________
flesh and the power it holds
Reply With Quote
  #22  
Old 2005-10-24, 00:08
TruthDevoid's Avatar
TruthDevoid TruthDevoid is offline
Drugged Unholy
 
Join Date: Jan 2005
Location: Philadelphia Area
Posts: 2,458
I actually heard this band for the first time a few days ago. Cool shit.
__________________
Quote:
Originally Posted by MetalThrashingMad
I don't know about you, but I deadlift because I strive to be the first human tree stump pulling machine


Quote:
Originally Posted by viewer_from_nihil
the song serial cocksucker changed my life


Quote:
Originally Posted by BassBehemoth
Are you going to snort cheap pharmaceutical drugs with your lizard as well?
Reply With Quote
  #23  
Old 2005-10-24, 00:29
Soeru's Avatar
Soeru Soeru is offline
Post-whore
 
Join Date: Oct 2004
Location: Land of Dust
Posts: 3,551
I've pimped them for the longest time... one of the first DM bands I got into. I haven't blasted them as often up until recently, been listening to them a lot now once again, and not just the new EP they have out. They deserve more recognition than the assload of metalbore bands they have to open up for...
__________________
Quote:
Originally Posted by far_beyond_sane

(Did you know In Flames had a 2005 album called "Come Clarity"? How prophetic. I think they're trying to tell us all their sperm are dead.)
Reply With Quote
  #24  
Old 2005-10-27, 16:47
A City Aflame A City Aflame is offline
New Blood
 
Join Date: Aug 2005
Posts: 9
I want to see Return, The Promise of Never, Maddening Disdain, White Rose on white lace and A diamond for disease tabbed. However, I posted the intro to Return on the Arsis messageboard awhile back.
Reply With Quote
  #25  
Old 2005-10-27, 21:50
Soeru's Avatar
Soeru Soeru is offline
Post-whore
 
Join Date: Oct 2004
Location: Land of Dust
Posts: 3,551
Whoa slow down there... Diamond for Disease was just released lol. And it's basically 13 minutes of shredding, so I don't think we'll be seeing a tab for that in a while. The Promise of Never is actually a re-recording of Fortune's Envy, an old demo track btw. They changed the lyrics for some odd reason...

If you want Roses on White Lace, look for the tab of the original Alice Cooper song.

Yeah, Dimenjaro is working on Maddening Disdain. I had a few riffs down but oh well... that new GP tab in the pending tabs forum from someone else is very accurate, but I need to compare it to Dimenjaro's, who's I haven't looked at a lot yet.
__________________
Quote:
Originally Posted by far_beyond_sane

(Did you know In Flames had a 2005 album called "Come Clarity"? How prophetic. I think they're trying to tell us all their sperm are dead.)
Reply With Quote
  #26  
Old 2005-10-28, 05:49
Transient's Avatar
Transient Transient is offline
HES BAAACK
 
Join Date: Apr 2004
Location: slaying all the giants
Posts: 9,967
as a matter of fact, i dont really like the new arsis ep nearly as much as a celebration
__________________
www.myspace.com/crownedmusic
http://i79.photobucket.com/albums/j136/transient_shirts/Banner.gif
Reply With Quote
  #27  
Old 2006-05-19, 15:58
gitrplaya4u gitrplaya4u is offline
New Blood
 
Join Date: Jun 2005
Posts: 1
i made a GP tab for Maddening Disdain just finished.
Im gonna spruce it up some and then add it. expect to see it.

includes: 2 guitars, bass
Reply With Quote
  #28  
Old 2006-05-21, 00:58
soulterashaun soulterashaun is offline
Senior Metalhead
 
Join Date: Aug 2002
Location: Smells like cheese.
Posts: 323
Send a message via AIM to soulterashaun
I was gonna say, I tabbed out most of Maddening Disdain by myself, but I haven't written out tab in forever. And maybe when I do I can post it in the incomplete tabs section. I have most of Return done and parts of other songs.


And as for Face of My Innocence, I'm pretty sure from watching the video of it on their website that he taps in the first riff. I've actually figured that out and I'll post the tapped version soonish.


AND and I'm no good with powertab or guitar pro, so when I tab something out, anyone that can do that feel free to make what you can of it.


Love,
Shaun.
__________________
I used to come here a lot.
Reply With Quote
  #29  
Old 2006-05-21, 08:41
Transient's Avatar
Transient Transient is offline
HES BAAACK
 
Join Date: Apr 2004
Location: slaying all the giants
Posts: 9,967
i want to see a tab for sadistic motives the most

theres a video on youtube but i dont think itd be of much help
__________________
www.myspace.com/crownedmusic
http://i79.photobucket.com/albums/j136/transient_shirts/Banner.gif
Reply With Quote
  #30  
Old 2006-08-27, 11:55
satyrasis satyrasis is offline
New Blood
 
Join Date: Aug 2006
Posts: 1
Maddeing Disdain Tab (Incomplete)

Posted in the SMNnews Arsis Forum as well.

I noticed a suprising lack of Arsis tabs and the ones I found on mysongbook for guitar pro were quite wrong. This is what I came up with after an hour or so of jamming on Maddening Disdain. Its basically a compilation of the various riffs I could figure out. In the coming months I may figure the rest out. If I ever complete it, I'll post it somewhere on the net. If you want to use this to complete your own tab of the song, give me credit where do, I guess. I wrote this up in powertab, so if you'd like it in that format, it should be attatched. The tab itself is incomplete and in no way do I deem it to be exact, but its better than the guitar pro file thats out there, so hopefully it helps.

#----------------------------------PLEASE NOTE---------------------------------#
#This file is the author's own work and represents their interpretation of the #
#song. You may only use this file for private study, scholarship, or research. #
#------------------------------------------------------------------------------##

MADDENING DISDAIN - ARSIS
Gtr I (D G C F A D) - 'Untitled'
Gtr II (D G C F A D) - 'Untitled'

Q=190
4/4
Gtr I
PM----| PM----| PM------------------|
E q q Q. E S S E E E S S E E E S S E S S E E S S S S 3x
|--------------||----------------------|--------------------------||
|--------------||o---------------------|-------------------------o||
|--------------||----------------------|--------------------------||
|-9-9--9--9----||--9---------7---------|-5---------------7-7-5-5--||
|-6-6--6--6----||o-------7-9-------5-7-|-------------------------o||
|-7-7--7--7----||----0-0-------0-0-----|---0-0-0-0-0-0-0----------||
|
| Gtr II
| PM----| PM----| PM------------------|
| E q q Q. E S S E E E S S E E E S S E S S E E S S S S 3x
|--------------||----------------------|--------------------------||
|--------------||o---------------------|-------------------------o||
|--------------||----------------------|--------------------------||
|-9-9--9--9----||--9---------7---------|-5------------------------||
|-6-6--6--6----||o-------7-9-------5-7-|-------------------------o||
|-7-7--7--7----||----0-0-------0-0-----|---0-0-0-0-0-0-0-0-0-0-0--||


Gtrs I, II
PM----| PM----|
E S S E E E S S E E E q q Q.
|---------------------|--------------|
|---------------------|--------------|
|---------------------|--------------|
|-9---------7---------|-9-9--9--9----|
|-------7-9-----------|-6-6--6--6----|
|---0-0-------0-0-0-0-|-7-7--7--7----|


PM----| PM----| PM------------------|
E S S E E E S S E E E S S E S S E E S S S S 3x
||----------------------|--------------------------||
||o---------------------|-------------------------o||
||----------------------|--------------------------||
||--9---------7---------|-5---------------7-7-5-5--||
||o-------7-9-------5-7-|-------------------------o||
||----0-0-------0-0-----|---0-0-0-0-0-0-0-0-0-0-0--||


PM----| PM----|
E S S E E E S S E E E q q Q.
|---------------------|--------------|
|---------------------|--------------|
|---------------------|--------------|
|-9---------7---------|-9-9--9--9----|
|-------7-9-----------|-6-6--6--6----|
|---0-0-------0-0-0-0-|-7-7--7--7----|


E E E E E E E E E E E E E E E E
||---------------------|-----------------|
||o--------------------|-----------------|
||---------------------|-----------------|
||------10-9-----------|-9---9---7---7s9-|
||o---7------10----9---|-7---7---5---5s7-|
||--0-----------0-10-0-|---0---0-5-0-----|


E E E E E E E E E E E E E E Q 4x
|--------------------|------------------||
|--------------------|-----------------o||
|--------------------|------------------||
|-----10-9-----------|-9---9---7---5----||
|---7------10----9---|-7---7---5---3---o||
|-0-----------0-10-0-|---0---0---0-3----||


E E E E E E E E E E E E E E E E
||------------------|-----------------|
||o-----------------|-----------------|
||------------------|-----------------|
||--9---9---9-7-5-7-|-9---9---9-7-5-7-|
||o-7-7-7-7-7-7-7-7-|-7-7-7-7-7-7-7-7-|
||------------------|-----------------|


1. 2.
Gtr I
~~ ~~
E E E E E E E E E E E E E Q. E E E Q Q.
|-----------------|-------------------||-2--------------|
|-----------------|------------------o||---3-5----------|
|-----------------|-------------------||-------5--4-----|
|-7---7---7-9-7---|-10-10---9---7-----||----------------|
|-5-5-5-5-5-5-5-5-|--7--7-7-7-7-9----o||----------------|
|-----------------|-------------------||----------------|


E E E E E E E E E E E E E E E E E E E E E E E E
||------------------|-----------------|-----------------|
||o-----------------|-----------------|-----------------|
||------------------|-----------------|-----------------|
||--9---9---9-7-5-7-|-9---9---9-7-5-7-|-7---7---7-9-7---|
||o-7-7-7-7-7-7-7-7-|-7-7-7-7-7-7-7-7-|-5-5-5-5-5-5-5-5-|
||------------------|-----------------|-----------------|


1. 2.
~~ T
E E E E E Q. S S S S S S S S S S S S S S S S
|-------------------||------------------------------------|
|------------------o||------------------------------------|
|-------------------||-------------5h7h9h11p9p7p5---------|
|-10-10---9---7-----||-------5h7h9----------------9p7p5---|
|--7--7-7-7-7-9----o||-5h7h9------------------------------|
|-------------------||------------------------------------|


Gtr I
Q Q Q Q H. Q Q. Q. Q Q. Q. E E W
|-------------||-------------|---------------|----------------|-------||
|-------------||o------------|---------------|----------------|------o||
|-------------||-------------|-4-----2-------|--2-------------|-------||
|----1--1--4--||--2-------5--|------------5--|-------5----4-5-|-4-----||
|-2-----------||o------------|---------------|----------------|------o||
|-------------||-------------|---------------|----------------|-------||
|
| Gtr II
| Q Q Q Q H. Q Q. Q. Q Q. Q. E E W
|-------------||-------------|-7-------------|----------------|-------||
|----------8--||o-8----------|------10----8--|-10----8----7-8-|-7----o||
|----8--8-----||----------9--|---------------|----------------|-------||
|-9-----------||-------------|---------------|----------------|-------||
|-------------||o------------|---------------|----------------|------o||
|-------------||-------------|---------------|----------------|-------||


Gtr I
Q Q Q Q Q Q Q Q 4x
||----------------|---------------||
||o---------------|--------------o||
||----------------|---------------||
||--2------5------|--4-----1--1---||
||o----2-------3--|-----2--------o||
||----------------|---------------||
|
| Gtr II
| Q Q Q Q Q Q Q Q 4x
||----------------|---------------||
||o---------------|--------------o||
||--9-----12------|-11-----8--8---||
||-----9------10--|-----9---------||
||o---------------|--------------o||
||----------------|---------------||


Duration Legend
---------------
W - whole; H - half; Q - quarter; E - 8th; S - 16th; T - 32nd; X - 64th; a - acciaccatura
+ - note tied to previous; . - note dotted; .. - note double dotted
Uncapitalized letters represent notes that are staccato (1/2 duration)
Irregular groupings are notated above the duration line
Duration letters will always appear directly above the note/fret number it represents the
duration for. Duration letters with no fret number below them represent rests. Multi-
bar rests are notated in the form Wxn, where n is the number of bars to rest for. Low
melody durations appear below the staff

Tablature Legend
----------------
h - hammer-on
p - pull-off
b - bend
pb - pre-bend
r - bend release (if no number after the r, then release immediately)
/\ - slide into or out of (from/to "nowhere")
s - legato slide
S - shift slide
<n> - natural harmonic
[n] - artificial harmonic
n(n) - tapped harmonic
~ - vibrato
tr - trill
T - tap
TP - trem. picking
PM - palm muting
\n/ - tremolo bar dip; n = amount to dip
\n - tremolo bar down
n/ - tremolo bar up
/n\ - tremolo bar inverted dip
= - hold bend; also acts as connecting device for hammers/pulls
<> - volume swell (louder/softer)
x - on rhythm slash represents muted slash
o - on rhythm slash represents single note slash

Misc Legend
-----------
| - bar
|| - double bar
||o - repeat start
o|| - repeat end
*| - double bar (ending)
: - bar (freetime)
$ - Segno
& - Coda
Tempo markers - <E/E./Q/Q./H/H.> = BPM(8/16=s8/s16), where s8 = swing 8ths, s16 = swing 16ths


************************************************** *************************************
* Generated using Power Tab Editor by Brad Larsen - http://powertab.guitarnetwork.org *
************************************************** *************************************
Attached Files
File Type: ptb Maddening Disdain.ptb (6.5 KB, 134 views)

Last edited by satyrasis : 2006-08-27 at 11:58.
Reply With Quote
Reply


Thread Tools

Posting Rules
You may not post new threads
You may not post replies
You may not post attachments
You may not edit your posts

vB code is On
Smilies are On
[IMG] code is Off
HTML code is Off
Forum Jump



All times are GMT -5. The time now is 05:06.


========

Contact Us | Privacy Policy | Disclaimer
Copyright © 2001-2009 MetalTabs.com. All Rights Reserved.
Powered by vBulletin
Copyright ©2000 - 2009, Jelsoft Enterprises Ltd.