MetalTabs.com - your source for Metal tabs
Home Forum What's New Submit a Tab FAQ Links Contact Us Link to Us


Go Back   MetalTabs.com Forum > Musicians > Guitar Zone
User Name
Password


Reply
 
Thread Tools Search this Thread Rate Thread
  #161  
Old 2005-05-13, 18:51
The Doctor's Avatar
The Doctor The Doctor is offline
Denimwearinghillbilly
Forum Leader
 
Join Date: Jul 2002
Location: Bladel, Holland
Posts: 6,806
Send a message via Yahoo to The Doctor
arch enemy!

ravenous? sorry, not sure, had to much of these:
Reply With Quote
  #162  
Old 2005-05-13, 20:48
younguitarist's Avatar
younguitarist younguitarist is offline
Post-whore
 
Join Date: Mar 2004
Location: San Antonio, TX
Posts: 2,037
Haha it's enemy within
Reply With Quote
  #163  
Old 2005-05-14, 04:55
The Doctor's Avatar
The Doctor The Doctor is offline
Denimwearinghillbilly
Forum Leader
 
Join Date: Jul 2002
Location: Bladel, Holland
Posts: 6,806
Send a message via Yahoo to The Doctor
hehehe

e|----------------------------------------------------------------------------------|
B|----------------------------------------------------------------------------------|
G|-----9------7-------------9------7------------------------------------------------|
D|---9---9-10---10--9-7---9---9-10---10--9-5--------5-------------------------------|
A|-------------------------------------------5-7--8----8-7-5----------5-------------|
E|-----------------------------------------------------------8-5-7--8----8-7-3-5----|
Reply With Quote
  #164  
Old 2005-05-14, 12:35
Of_Melancholy_Burnin's Avatar
Of_Melancholy_Burnin Of_Melancholy_Burnin is offline
Metalhead
 
Join Date: Mar 2005
Posts: 59
Quote:
Originally Posted by CarnivorousWind
Here's a pretty easy one.

|------0-------------0-------------0------------------------|
|--------0-------------0-------------0----------------------|
|----------0-------------0-------------0--------------------|
|------------2-------------2-------------2------------------|
|--2--------------2-------------2------------7-8-8-7-5-3---|
|--0--------------0-------------0------------5-6-6-5-3-1---|


Mayhem - Freezing Moon
doubt it wasnt answered though
Reply With Quote
Reply


Thread Tools Search this Thread
Search this Thread:

Advanced Search
Rate This Thread
Rate This Thread:

Posting Rules
You may not post new threads
You may not post replies
You may not post attachments
You may not edit your posts

vB code is On
Smilies are On
[IMG] code is Off
HTML code is Off
Forum Jump



All times are GMT -5. The time now is 09:57.


========

Contact Us | Privacy Policy | Disclaimer
Copyright © 2001-2009 MetalTabs.com. All Rights Reserved.
Powered by vBulletin
Copyright ©2000 - 2009, Jelsoft Enterprises Ltd.