View Single Post
  #28  
Old 2003-04-23, 14:06
Kjeldgor
Guest
 
Posts: n/a
Yup.. Favorite chord.. meaning any chord you can think of..

lets use.. an.. Am7add9

notes are: A C E G B

------------------------------------------
------------------------------------------
------------------------------------------
---------5h9p5----------------------------
------7----------7--------------------------
-5h8--------------8h5----------------------

or.. another variation:

---------------------8h12(h15p12)p8-------------------------------
-----------------10-------------------10---------------------------
----------9h12---------------------------12p9---------------------
------10----------------------------------------10------------------
--12-----------------------------------------------12-------------
--------------------------------------------------------------------------

Heh.. good luck with the second one.. i added a tap just to fuck with you all..

Hopefully you people got the point..

if not, chew on this one:

---------------9 h10 h11 t16 s17 t21 p17 s16 p11 p10 p9-------------------
------------9------------------------------------------------------9----------------
---------8-------------------------------------------------------------8------------
-----11-------------------------------------------------------------------11--------
-12---------------------------------------------------------------------------12----
-----------------------------------------------------------------------------------------

btw.. Amaj7b5add11 (notes are: A C# Eb G# D)


MWAHAHAHAH... use of double tap, tap slides

sounds pretty jazzy, but if you can shred to that, it's pretty fuckin cool
Reply With Quote