View Single Post
  #28  
Old 2007-04-23, 02:43
johnmansley's Avatar
johnmansley johnmansley is offline
Schrodinger's Cat
Forum Leader
 
Join Date: Dec 2003
Location: Liverpool, England
Posts: 5,974
Send a message via MSN to johnmansley
Quote:
Originally Posted by powersofterror
If you're talking about this, this is not counterpoint....merely polyphony.


From tabcrawler
Riff 2
^ = Bend, T = Tap
|---------------------------------------------|
|---------2^----------------------------------|
|--------------3------4p3-------------4---7---|
|---2h5p2----5-----------5p2-5/7---2h5------T-|
|--------------------------------0------3---3-|
|-0-----------------3-------------------------|
|
|---------------------------------------------|
|---------------------------------------------|
|---------------------4p3------------T----7---|
|---2h5p2-5p0h2----------5p2-5/7-----5------T-|
|---------------2-1--------------0-3----3---3-|
|-0-----------------3-------------------------|


Ah.
__________________
Album of the day:

Red Sparowes - At the Soundless Dawn
Reply With Quote