View Single Post
  #19  
Old 2006-11-26, 17:33
Laaz-Rockit1988 Laaz-Rockit1988 is offline
Metalhead
 
Join Date: Nov 2006
Posts: 65
Wow guys that is really impressive, but theres just 1 wee note which is wrong.



|-------------|-------------------|
|-------------|-------------------|
|-------------|-------------------|
|----5--------|----5-----6--5--4--|
|-7--3--6-----|-7 -3--6--4--3--2--|
|-5-----4-----|-5-----4-----------|



|-------------|-------------------|
|-------------|-------------------|
|-------------|-------------------|
|----5--------|----5-----8--7--6--|
|-7--3--6--/\-|-7--3--6--6--5--4--|
|-5-----4-----|-5-----4-----------|

|--------------------|------------------|
|--------------------|------------------|
|--------------------|------------------|
|--------------------|------------------|
|-----333------------|-----333----6-5-4-|
|-555-----444444444-|-555-----44-------|


It was a G on the 6th string itstead of a G#. i noticed while playing throught ur version MTM.

Fair play to anyone who gets the clean section and the solo tabbed. Also, would any of you mind if i put this into GP for the people who use GP????

Also i dont really think Shotgun Logic is in Drop D


__________________
Early 80's Bay Area Thrash =
Reply With Quote