View Single Post
  #17  
Old 2006-11-26, 13:32
Hidrio's Avatar
Hidrio Hidrio is offline
Supreme Metalhead
 
Join Date: Jan 2006
Location: Jersey (CI) UK
Posts: 709
Send a message via MSN to Hidrio
Shotgun logic.

This is what I can hear in the part after the intro. This I find the hardest.

|------------------------------------------------------------------------------------|
|------------------------------------------------------------------------------------|
|--8-----8-----9--------11\--------11\-----8-----8-----7---------11\--------11\----|
|--6---x-6---x-7--------12\--------12\-----6---x-6---x-5---------12\--------12\----|
|--4---x-4---x-5----xxxx-------xxxx--------4---x-4---x-3-----xxxx--------xxxx-------|
|------------------------------------------------------------------------------------|


|------------------------------------------------------------------------------------|
|------------------------------------------------------------------------------------|
|--8-----8-----9--------11\--------11\-----8-----8-----7--------7--7--7------------|
|--6---x-6---x-7--------12\--------12\-----6---x-6---x-5--------5--5--5-------------|
|--4---x-4---x-5----xxxx-------xxxx--------4---x-4---x-3--------3--3--3------------|
|------------------------------------------------------------------------------------|


|--------------------------------------------------------------------------------------------------|
|--------------------------------------------------------------------------------------------------|
|-5-----5-----4----------------------8-----8-----7------------------------------------------------|
|-3-----3-----2----------------------6-----6-----5------------------------------------------------|
|-1-----1-----0----------------------4-----4-----3--------------------3-----3-----3------3--3--3--|
|----------------------------------------------------------------------1-----1-----1------1--1--1--|

Any ideas?

Standard tuning btw.
Reply With Quote