View Single Post
  #50  
Old 2006-09-29, 13:42
tripton tripton is offline
New Blood
 
Join Date: Sep 2006
Posts: 46
which tab is correct for Cemetary Gates?

i am new to guitar, trying to learn the song. i am trying to learn the main riff with those couple squeals in it. there seem to be 2 ways to play it. which one is correct? also, if anyone has the time, maybe try and clean up the Cemetary Gates tabs? there are quite a few of them... thanks.

*-*-* ~ ~ ~ *
E :-------------------------------------------------------------|
B :-------------------------------------------------------------|
G :------------------------4------------------------------------|
D :2-------2-2-1-2-3---2-3---2-3-2-------2-2-1-2-3---2-3p2------|
A :0-0-0-0-0---------------------0-0-0-0-0----------------3-2-3-|
E :---------------------------------------------------------0 1-|


OR THIS WAY--

E :-------------------------|---------------------|-----------------------|
B :-------------------------|---------------------|-----------------------|
G :-------------------------|---------------------|-----------------------|
D :-------------------------|--------7~-----------|-----------------------|
A :7--7--7--7--7--7p6h7---8~|---7h8-----7h8----7--|7--7--7--7--7p6h7-8~--6|
E :5--5--5--5--5------------|------------------5--|5--5--5--5-------------|
" " " "
Reply With Quote