View Single Post
  #99  
Old 2006-06-15, 15:36
iron_bodom iron_bodom is offline
Metalhead
 
Join Date: Aug 2005
Location: West Virginia
Posts: 65
|------------------------|-------------------|
|------------------------|-------------------| Riff x2
|-----7--5p4--4---------|-----7-\-5p4-----4-|
|-0-0--------7--542p0---|-0-0---------757--|

|--------------------|----------------2---|
|-----4--4p204p2----|-----4--4p----------|
|----------------4-0-|-----------424------|
|-2-2----------------|-2-2--------------3-|

|---------------------|---------------------|
|-----6--7p6---6-----|-----6--7p6---6------|
|-------------9--9-7-|-------------9---97-6-|
|-4-4----------------|-4-4------------------|
__________________
"We are not here concerned with hopes or fears, only with the truth as far as our reason permits us to discover it."
-- Charles Darwin
Reply With Quote