Thread: harmony example
View Single Post
  #8  
Old 2006-02-05, 13:38
amerok's Avatar
amerok amerok is offline
Senior Metalhead
 
Join Date: Jan 2005
Location: nashville, TN
Posts: 302
Send a message via AIM to amerok
Quote:
Originally Posted by JacksonGuitars07
Are you using a harmonizer? And you have one fucking metal voice there

How old are you? And can you tab out the fast lick you played? You've got some killer chops there.


Thanks. I didnt use a harmonizer, there are 2 tracks on that recording.
I wrote the tab in notepad then copypasted it into here so i hope the size doesnt fuck up.

Guitar 1

D-------------------------------------------------------------
A-------------------------------------------------------------
F---------------------6-7-9-7-6-----------6-7-9---------------
C---------------6-7-9-----------9-7-6-7-9---------------------
G---------5-7-9-----------------------------------------------
D---5-7-9-----------------------------------------------------


D----------7-9-10-9-7-------------------------------------------
A---7-9-10------------10-9-7------------------------------------
F----------------------------9-7-6-7-9-7-6----------------------
C------------------------------------------9-7-6----------------
G------------------------------------------------9-7-5----------
D------------------------------------------------------9-7-5----

Guitar 2

D---------------------------------------------------------------
A---------------------------------------------------------------
F---------------------------9-11-13-11-9--------------9-11-13---
C-------------------9-11-12--------------12-11-9-11-12----------
G-----------9-11-12---------------------------------------------
D---9-10-12-----------------------------------------------------


D------------10-12-14-12-10------------------------------------------------------
A---10-12-14----------------14-12-10---------------------------------------------
F------------------------------------13-11-9-11-13-11-9--------------------------
C-------------------------------------------------------12-11-9------------------
G---------------------------------------------------------------12-11-9----------
D------------------------------------------------------------------------12-10-9-
Reply With Quote