View Single Post
  #25  
Old 2005-06-10, 08:19
\m/Eat At Joe's\m/'s Avatar
\m/Eat At Joe's\m/ \m/Eat At Joe's\m/ is offline
Metalhead
Banned
 
Join Date: May 2005
Location: between the viaducts of your dreams
Posts: 98
Damn, I wrote a riff already:

------------1-------|
-------------2------|
--------------2-----|
---------------1----|
--------------------|
000000--------------|

------------------------------|
------------------------------|
------------------------------|
------------------------------|
----1-4-----3-6-2-5-3-6-2-5---|
1-4-----1-4-------------------|
Reply With Quote