View Single Post
  #3  
Old 2005-05-28, 05:36
Sodomaniac's Avatar
Sodomaniac Sodomaniac is offline
Supreme Metalhead
 
Join Date: Jan 2004
Location: Wesel; Germany
Posts: 964
Send a message via ICQ to Sodomaniac
G---9---9---7---7----7---7---5---5----9---9---7---7----7---7---5---5--
D-7---7---9---9----5---5---7---7----7---7---5---5----9---9---7---7----
A------------------------------------------------------------------------
E------------------------------------------------------------------------

G---7---7---5---5----5---5---3---3----7---7---5---5----5---5---3---3--|
D-5---5---7---7----3---3---5---5----5---5---3---3----7---7---5---5----|
A-----------------------------------------------------------------------|
E-----------------------------------------------------------------------|

This could be a an intro.


G----10-12---------------8-10-----------6-8-----------------------
D-12-------10-8-------10------8-6-----8-----6-4-------------5-7--
A----------------10-8--------------8-6-----------6-4---5-7------7-
E-----------------------------------------------------7-----5------

G----------------|
D---------5-7-7~|
A---5-7----------|
E-7-----5--------|

And this could be a small solo.
__________________
It's Good To Be Bad!!!
Reply With Quote