View Single Post
  #2  
Old 2005-05-27, 20:50
Zionist Zionist is offline
My Ass, Your Face
 
Join Date: Jan 2005
Location: Michigan
Posts: 2,557
Send a message via AIM to Zionist
Here is a little bass part I play in my band.

G|-----------------------------------------4h5h4---------------
D|-----------------------------------5-7----------7--5---------
A|-----------------5--7----------5-----------------------------
E|-5---5-5-5-5-5---------5---5--------------------------7---8-

----------------------------------------5----------
---------------------------------------------5--7--
-------------8h7h5-----------------5h7---7--------
--8-8-8-8-8-------5---0---0--0-0------------------


There is more I just don't like posting it all.
__________________
A little section of Requiem's "I finally got laid" posts.
Quote:
Originally Posted by Requiem
Wore her out before I could finish(which im grateful for)


Funeral Mulch; My brutal death metal band from West Michigan.
Reply With Quote