View Single Post
  #1  
Old 2005-05-27, 19:11
Tulvox's Avatar
Tulvox Tulvox is offline
Post-whore
 
Join Date: Dec 2004
Location: Minnesota
Posts: 1,136
Send a message via AIM to Tulvox Send a message via MSN to Tulvox
Post Your Basslines

Hey all, I'm just curious as to what some of my fellow bass players create. Feel free to share something you've wrote or comment on others.

I'll start us off:

G--4---4---------4---4-----------4---4---------4---4-----------
D--2---2-02h3p2-2---2--02h3p2--2---2-02h3p2-2---2--02h3p2--
A---------------------------------------------------------------
E---------------------------------------------------------------
B---------------------------------------------------------------

G--5---5---------5---5---------5---5---------5---5--------
D--3---3-03h4p3-3---3-03h4p3-3---3-03h4p3-3---3-0-3-5--
A----------------------------------------------------------
E----------------------------------------------------------
B----------------------------------------------------------


G-----------------------------------------10p9-9p7-7p5-3p0-5--
D--7---7-0-5-7--7---7-0-5-7--7---7-x-x-x-------------------3--
A---------------------------------------------------------------
E---------------------------------------------------------------
B---------------------------------------------------------------

I wrote this just recently. It's moderatly slow and not to difficult. I hope to see someone respond.

__________________
Worker bees can leave,
Even drones can fly away.
The queen is their slave.


www.maddox.xmission.com
Reply With Quote