View Single Post
  #24  
Old 2004-09-21, 07:42
Rick Metal Rick Metal is offline
Senior Metalhead
 
Join Date: May 2004
Posts: 155
Quote:
Originally Posted by younguitarist
Im working on the song 'Aesthetic' by BTBAM .I got some of it though..it should be done in a month because this song is a tough one.

Artist: Between The Buried And Me
Album: The Silent Circus
Song: Aesthetic
Transcribed by:Alvaro Ramirez
Email me for any comments or corrections:lazyguitarist@musician.net
Tune guitars to C#
=================================================================
Comments : This was one of the hardest song i have ever tabbed.
It may not be perfect but i gave it my best shot....
=================================================================

. - palm mute / - slide up to ah - Artificial harmonics
\ - slide down to ~ - vibrato
h - hammer on b - Bend
p - pull off Suffixes for bend
t - tap f - full bend h - half bend
ph - pinched harmonic q - quarter bend t - tap bend
* - see comment ^ - Hold bend r release bend
x - Staccato ~ - vibrato bend
, - slight palm mute () - ghost note, sustained note
" - tremolo note <> - Trill

Intro guitar one
|-------|----------|----------|-19-------|----------19----|------------------------|
|-------|----------|-15-16-17-|----20-15-|-15-17-18----17-|-20-19-17---------------|
|-15-16-|-15h16p16-|----------|----------|----------------|----------19-17-15-16br-|
|-------|----------|----------|----------|----------------|------------------------|
|-------|----------|----------|----------|----------------|------------------------|
|-------|----------|----------|----------|----------------|------------------------|
| |
| guitar two |
|-------|----------|----------|----------|----------------|------------------------|
|-------|----------|----------|----------|----------------|------------------------|
|-------|----------|----------|----------|----------------|------------------------|
|-------|----------|----------|----------|----------------|-2----------------------|
|-------|----------|----------|----------|----------------|----5--3--2--0-----2br--|
|-0--0--|-0--0--0--|-0--0--0--|-0--0--0--|-0--0--0--0--0--|----------------3-------|
. . . . . . . . . . . . . . . . . . . . . .

Continue
Intro guitar one
|---------------------------------------



Sorry man but you're way off... try this instead http://smnnews.com/board/showthread...light=aesthetic
Reply With Quote