View Single Post
  #16  
Old 2002-04-02, 17:12
CFH PanterA CFH CFH PanterA CFH is offline
New Blood
 
Join Date: Apr 2002
Location: Scotland
Posts: 2
Send a message via AIM to CFH PanterA CFH
Heres a good song to try
PanterA - Cemetery gates, of all the tabs, the harmonics are on the lower strings, THIS IS WRONG!
u geta higher squeal if u play it this way, some notes, higher strings....= better squeal.


(*) = pinch harmonic

------------------------------------------------
------------------------------------------------
----------------------------3b(4)R3----------
-22222--2p1h2-3-2-3--*------------------
-00000--*--------*---*----------------------
-------------------------------------------------

------------------------------------------------
------------------------------------------------
------------------------------------------------
-22222--2p1h2-3-2-3--2---1-------------
-00000--*--------*---*----3----2----------
-----------------------------*-*-*-*---------


This Riff got me Fluent in harmonics, it also sounds pretty damn cool. lol
__________________
........................
Reply With Quote