View Single Post
  #16  
Old 2004-03-23, 14:04
BestialWarrior's Avatar
BestialWarrior BestialWarrior is offline
Senior Metalhead
 
Join Date: Oct 2003
Location: Chicago,Il.
Posts: 367
Quote:
Originally Posted by powersofterror
Hey BestialWarrior, does this sound right? (I only spent a few minutes cause I'm in a hurry now)

(they're sixteenth triplets BTW)
Absolute sole right


E-----------------------------------------------------------------|
B-----------------------------------------------------------------|
G-----------------------------------------------------------------|
D-------------------------------3-----4-----4------2---------------|
A-2-2-2-2-2-2-2-2-2-2-2-2-2-2-2-2-2-2-2-2-3-2-2-2-2-2-2-2-2-2-2-2-|
E-0-0-0-0-0-0-0-0-0-0-0-0-0-0-0-0-0-0-0-0-0-0-0-0-0-0-0-0-0-0-0-0-|


E-----------------------------------------------------------------|
B-----------------------------------------------------------------|
G-----------------------------------------------------------------|
D----------------6---4-----3------2---------------------------------|
A-2-2-2-2-2-2-2-2-2-2-2-2-2-2-2-2-2-2-2-2-2-----------------------|
E-0-0-0-0-0-0-0-0-0-0-0-0-0-0-0-0-0-0-0-0-0-----------------------|


lol.... wtf is this? the main riff...riff#1?
I take it you didn't see my tab for this tune??
Let me know if you have or not..
__________________
bestialson2003@yahoo.com
Reply With Quote