View Single Post
  #8  
Old 2004-01-27, 15:33
fritz fritz is offline
Metalhead
 
Join Date: Jan 2004
Location: South Carolina - United States
Posts: 92
Send a message via AIM to fritz
Lightbulb


I apologize if this is an inappropriate place to put this, but it's just a snippet, so...

Mutant Christ, here is the pre-solo riff to Contagion.

----------------------------------------------------------------
----------------------------------------------------------------
----------------------------------------------------------------
-8-7-5-7-5---5-----------9------------9----------------
-----------8---8-7-5-7-8-7------2-2-2-7------2-2-2-------------
--------------------------------0-0-0--------0-0-0---------

----------------------------------------------------------------
----------------------------------------------------------------
-------------5--------------------------------------------------
-8-7-5-7-5-----8-7-8-7-5-9------------9---------------------------
-----------8-------------7------2-2-2-7------2-2-2----------------------
--------------------------------0-0-0--------0-0-0--------------------

Those low chords are heavily palm-muted. If you can't hit 'em just do an open triplet on the low string.

My first post, by the way!
__________________
Praise Hail Satan
Reply With Quote