MetalTabs.com Forum

MetalTabs.com Forum (http://metaltabs.com/forum/index.php)
-   Guitar Zone (http://metaltabs.com/forum/forumdisplay.php?f=2)
-   -   Guitar Game (http://metaltabs.com/forum/showthread.php?t=9550)

RUSSIANROULETTE 2004-02-13 08:54

Guitar Game
 
I remember seeing a couple of threads in the Chit Chat forum where some one would post lyrics and then people would have to name the band, well, I don't know if this has been done before but I figured there should be a game where some one posts a tab (Doesn't have to be correct, just has to sound like the song they're trying to portray) and then people would have to name that band just from playing that tab. Sound fun?

Here, I'll start it out with something easy... tune drop D

|------------------------------------------------------------|
|------------------------------------------------------------|
|------------------------------------------------------------|
|-----------7-----6---------------7--------------------------------|
|-----0-00-5-00--4----431-0-00-5-00-31014444-------------------|
|-----0-00---00----00-431-0-00---00-31014444-------------------|

Note* The bold numbers are palm muted and the numbers like or example, the 5/7, the 4/6, and the 5/7 are suppose to e aligned, for some reason it won't post right, but you get the point.

Have fun

freek666 2004-02-13 10:39

ah yes, i used to play this game with a friend of mine when we were chatting on AIM. but he kept putting tabs to RHCP and led zepplin and stuff so it was hard to win... even though he couldnt figure half my tabs either. go figure

well i dont have my axe with me, seeing how im in a public library in kansas. well good luck.

Dyldo 2004-02-13 12:54

Hmmmm...I think it would be impossible to do since we don't know the rythum of the song. I think it would only work if you recorded your self playing it but we'll see how it goes.

Def 2004-02-13 13:39

eh, I've played it, well not in drop D because thats a gay tuning, but, I don't think I know where its from...

sound familiar though but whatever, I'll post up another one, standard tuning...

easy one!

|-------------------------|-------------------------|-----------------------|
|-------------------------|-------------------------|-----------------------|
|-------------------------|-------------------------|-----------------------|
|-------------------------|-------------------------|-----------------------|
|-5/7-2-x-8\5-2---x-x-x-2-|-5/7-2-x-5/7-2---x-x-x-2-|-5/7-2-x-8\5-2-x-x-x-x-|
|-3/5-0-x-6\3-0---x-x-x-0-|-3/5-0-x-3/5-0---x-x-x-0-|-3/5-0-x-6\3-0-x-x-x-x-|
s+s e e s+s e S s s e s s+s e e s+s e S s s e s s+s e e s+s e e s e s

fill 1 -------------------------|
|---------------------------------||
|---------------------------------||
|---------------------------------||
|-----9---------------------------||
|-/9----9-8-7\5---5-----4-----2---||
|---------------7---5\3---3\1---1-||

metal=life 2004-02-13 14:58

I don't know that one. Try this one its easy...

|---------------------------
|---------------------------
|---------------------------
|----------------------------
|-2~-----------------------
|-0~-----------------------

metal=life 2004-02-13 14:59

Quote:
Originally Posted by Def
eh, I've played it, well not in drop D because thats a gay tuning, but, I don't think I know where its from...

sound familiar though but whatever, I'll post up another one, standard tuning...

easy one!

|-------------------------|-------------------------|-----------------------|
|-------------------------|-------------------------|-----------------------|
|-------------------------|-------------------------|-----------------------|
|-------------------------|-------------------------|-----------------------|
|-5/7-2-x-8\5-2---x-x-x-2-|-5/7-2-x-5/7-2---x-x-x-2-|-5/7-2-x-8\5-2-x-x-x-x-|
|-3/5-0-x-6\3-0---x-x-x-0-|-3/5-0-x-3/5-0---x-x-x-0-|-3/5-0-x-6\3-0-x-x-x-x-|
s+s e e s+s e S s s e s s+s e e s+s e S s s e s s+s e e s+s e e s e s

fill 1 -------------------------|
|---------------------------------||
|---------------------------------||
|---------------------------------||
|-----9---------------------------||
|-/9----9-8-7\5---5-----4-----2---||
|---------------7---5\3---3\1---1-||



wait is that Pantera?

metal=life 2004-02-13 15:04

oh try this one

standard (hint; if you're familiar with Master of Puppets this should be easy)

in standard tuning
|---------------------
|-----------------------
|--------------------------
|-5--------7--6--5-----
|-7--------5--4--3-----
|-0--------------------

powersofterror 2004-02-13 15:29

haha, I have no idea about any of those....can anyone guess this?

|------------------------------------------------------------------
|------------------------------------------------------------------
|------------------------------------------------------------------
|-9-------9----9h11~--9---------------7-6--------------------------
|-7-----7---11------------9-----6-9-6------9-7---------------------
|-0-----------------------7-------------------5--------------------

johnmansley 2004-02-13 15:43

Quote:
Originally Posted by metal=life
wait is that Pantera?


Yep, gotta be "5 Minutes Alone".

metal=life 2004-02-13 16:14

you guys better know this one........

|---------------
|-------------
|-----0----------
|---2------------
|-------1-0-------
|-0-------------- (standard tuning)


Or try this arpeggio..(for the shredders)

|-----5--------5/8h12p8----------8/12h16p12--------------8/20~--
|----5-5----5-5--------10------10----------13----------10 ------
|---5---5----5-----------9-----9-------------12/9------9----------
|--7-----7----------------10-10------------------10--10----------
|-7-------7-----------------12----------------------12------------
|8------------------------------------------------------------------

johnmansley 2004-02-13 16:32

Quote:
Originally Posted by metal=life
you guys better know this one........

|---------------
|-------------
|-----0----------
|---2------------
|-------1-0-------
|-0-------------- (standard tuning)


Haha, that's Enter Sandman! Fucked if I know the arpeggio though...

OK folks, tune to B and try this one:

|-------------------------------------------------------------|
|-------------------------------------------------------------|
|-------------------------------------------------------------|
|-------------------------------------------------------------|
|-10-----------10-9-----------9-12-----------9-10-----------|
|----00000000------00000000-------88888888------77777777-|

SpiritCrusher 2004-02-13 17:52

What a nice game

Quote:
Originally Posted by metal=life
oh try this one

standard (hint; if you're familiar with Master of Puppets this should be easy)

in standard tuning
|---------------------
|-----------------------
|--------------------------
|-5--------7--6--5-----
|-7--------5--4--3-----
|-0--------------------


it would be Master of Puppets intro but played differently ? (the first chord is a regular E5 i think)

How about this one (tuned to D):

|---------------------------------------------------------|
|---------------------------------------------------------|
|---------------------------------------------------------|
|---------------------------------------------------------|
|-6------6------6------7-------6------6------5-----7-----|
|---444----444----4-5----5-4----444----333----4-5---5-4-|
. . . . . . . . . . . .

(hint : if you're familiar with one of the greatest bands ever, this should be easy :))

metal=life 2004-02-13 19:18

Goddamn it this shits impossible. First you can't tell a song because you can't hear the rhythm by seeing the tab and the other problem is that theres many different ways and techniques to play songs so they might not look familiar when you see them.

I don't even remember posting my posts on here...I can't believe I got that arpeggio right. I was preeeetty drunk

RUSSIANROULETTE 2004-02-14 00:40

Yeah, see that's the thing, it's more of a challange without hearing the song, that's the fun part. And, yeah Def, drop D tuning is pretty shitty. By the way, the song I posted was a part from Cadaver Blowjob by Prostitute Disfigurement.

Seve420 2004-02-14 06:34

Quote:
Originally Posted by Def
eh, I've played it, well not in drop D because thats a gay tuning, but, I don't think I know where its from...

sound familiar though but whatever, I'll post up another one, standard tuning...

easy one!

|-------------------------|-------------------------|-----------------------|
|-------------------------|-------------------------|-----------------------|
|-------------------------|-------------------------|-----------------------|
|-------------------------|-------------------------|-----------------------|
|-5/7-2-x-8\5-2---x-x-x-2-|-5/7-2-x-5/7-2---x-x-x-2-|-5/7-2-x-8\5-2-x-x-x-x-|
|-3/5-0-x-6\3-0---x-x-x-0-|-3/5-0-x-3/5-0---x-x-x-0-|-3/5-0-x-6\3-0-x-x-x-x-|
s+s e e s+s e S s s e s s+s e e s+s e S s s e s s+s e e s+s e e s e s

fill 1 -------------------------|
|---------------------------------||
|---------------------------------||
|---------------------------------||
|-----9---------------------------||
|-/9----9-8-7\5---5-----4-----2---||
|---------------7---5\3---3\1---1-||


5 Minutes Alone

Def 2004-02-14 08:11

Yup, it was 5 minutes alone! :beer:

I'll take a look at the ones you guys posted up when I'm in my other room (with my gear)

Nihilist 2004-02-14 08:35

Quote:
Originally Posted by johnmansley

OK folks, tune to B and try this one:

|-------------------------------------------------------------|
|-------------------------------------------------------------|
|-------------------------------------------------------------|
|-------------------------------------------------------------|
|-10-----------10-9-----------9-12-----------9-10-----------|
|----00000000------00000000-------88888888------77777777-|


At The Gates - Blinded By Fear

CarnivorousWind 2004-02-14 11:17

Here's a pretty easy one.

|------0-------------0-------------0------------------------|
|--------0-------------0-------------0----------------------|
|----------0-------------0-------------0--------------------|
|------------2-------------2-------------2------------------|
|--2--------------2-------------2------------7-8-8-7-5-3---|
|--0--------------0-------------0------------5-6-6-5-3-1---|

BestialWarrior 2004-02-14 11:24

Let's see if you guys know this one. It's old, very popular...

Tune down a half step= E flat..
Palm mute on Open E..
|------------------------------|
|----------------------------T-|
|---------------------------(3)|
|----1--1------1--1---4\3-1-2-|
|----1--1------1--1---2\1-----|
|0-0--0---0-0---0---0---------|


continued..
|----------------------------||
|----------------------------||
|----------------------------||
|----1---1----1-4\3-----4\3-||
|----1---1----1-2\1-4\3-2\1-||
|0-0---0--0-0-------2\1-----||


:vampire:

johnmansley 2004-02-14 11:33

Quote:
Originally Posted by Nihilist
At The Gates - Blinded By Fear


Spot on!

Here's a classic in standard that you should all get:

|--------------------------------------------------|
|--------------------------------------------------|
|--------------------------------------------------|
|--------------------------------------------------|
|-5----------4----------5-------4------4----------|
|-3-0000000-2-0000000-3-0000-2-0000-2-0000000-|

|--------------------------------------------------|
|--------------------------------------------------|
|--------------------------------------------------|
|--------------------------------------------------|
|-5----------4----------5-------4------3----------|
|-3-0000000-2-0000000-3-0000-2-0000-1-0000000-|

Note: PM the 0's


All times are GMT -5. The time now is 06:29.

Powered by: vBulletin Version 3.0.3
Copyright ©2000 - 2014, Jelsoft Enterprises Ltd.