MetalTabs.com Forum

MetalTabs.com Forum (http://metaltabs.com/forum/index.php)
-   Tab Questions & Requests (http://metaltabs.com/forum/forumdisplay.php?f=6)
-   -   Request for Burzum tabs (Bass, Guitar, Drum) (http://metaltabs.com/forum/showthread.php?t=5317)

uuuuhhhhhhh 2002-10-20 12:14

REQ: Burzum - Dunkelheit
 
i cant find it anywhere...i learned how to play the keyboard part on my guitar...but i want to know the whole fucking song

andras 2003-01-29 04:13

dunkelheit and filosofem
 
im working on the songs whenever i get time.

but give it a go, try tuning to standard E, (i use a dropC, but im sure its E...), and you gotta hold chords with 3 or 4 strings sounding, with often a drone E if the chord root is on A string.

anyways...

:scatter:

velzevul 2003-03-06 15:20

Burzum - Det Som En Gang Var(some riffs)
 
================================================================
NOTE:
I transcribed 3 main riffs only.
If you've missed parts, Please send it to me.
================================================================
Questions and Corrections to: lord_velzevul@bk.ru
================================================================
Tuning: Standart
================================================================
Legend:
~~~~~~~
\ - Slide
/ - Slide
h - Hammer on
p - Pull off
' - Fast Picking
b - Bend
================================================================
band: BURZUM
song: DET SOM EN GANG VAR
album: Hvis Lyset Tar Oss (1993)
tabbed by: Valentine 'Mortal' K.
date: -.-.2003
================================================================
Main Riff 1(The beginning 2:47)
|--------------------------------------------------------|
|--------------------------------------------------------|
|--------------------------------------------------------|
|-2--2--24\5/4--2--2--24\5/4--2--2--24\5/4--3--3--34\5/4-|
|-2--2--24\5/4--2--2--24\5/4--2--2--24\5/4--3--3--34\5/4-|
|-0--0--02\3/2--0--0--02\3/2--0--0--02\3/2--1--1--12\3/2-|
''''' ''''' ''''' ''''

Main Riff 2(The beginning in 7:54) Riff 2' (The beginning 8:24 and 8:54)
[Probably wrong] [Probably wrong]
[All notes tremelo picked] [All notes tremelo picked]
|----------------| |----------------------|
|----------------| |----------------------|
|-10\---12/---6\-| |-10\---12/---6\---8/6-|
|----------------| |----------------------|
|----------------| |----------------------|
|----------------| |----------------------|

Main Riff 3(Or this riffs but without bend)
Watch the timing!! Watch the timing!! Watch the timing!!
|----------------| |----------------| |-------------|
|----------------| |----------------| |-------------|
|----------------| |----------------| |-------------|
|----------------| OR |----------------| OR |-------------|
|----------------| |-7-0-7-0-8b\-5/-| |-2---2---3-0-|
|-7-0-7-0-8b\-5/-| |----------------| |---0---0-----|

JACKSON 2003-08-21 10:55

Burzum- My journey to the stars
 
could anyone tab My journey to the stars by Burzum for me?


All times are GMT -5. The time now is 20:34.

Powered by: vBulletin Version 3.0.3
Copyright ©2000 - 2014, Jelsoft Enterprises Ltd.