MetalTabs.com Forum

MetalTabs.com Forum (http://metaltabs.com/forum/index.php)
-   Tab Questions & Requests (http://metaltabs.com/forum/forumdisplay.php?f=6)
-   -   Nights Blood (http://metaltabs.com/forum/showthread.php?t=44949)

Dunkelheit 2009-07-11 14:27

Nights Blood
 
Hey I was wondering if anyone could help me out with the tremolo picked harmony after the clean acoustic part of Night's Blood by Dissection. 3:30 into the song. I can hear the acoustic part being repeated with distortion but I can't quite pick out the tremolo picked harmony. I'd appreciate any help seeing as most the tabs I look at are quite far off.

Ludool 2009-07-13 07:02


Hey!
If I understood what you mean, it should sound like this:

Tune E
Time: 3:30

|-----------------|
|-----------------|
|-----------------|
|---10-9p10h9-7---|
|-----------------|
|-----------------|

|----------------------------------------------------------------|
|----------------------------------------------------------------|
|----------------------------------------------------------------|
|-----------7"-----0---7-----------------------7"------10"-9"----|
|-7"-10"-9"------9---9---9-9h10p9----7"-10"-9"-----7"------------|
|--------------8------------------10-------------8"--------------|

|----------------------------------------------------------------|
|----------------------------------------------------------------|
|----------------------------------------------------------------|
|-----------7"-----0---7-----------------------7"---7-5h7p5-4----|
|-7"-10"-9"------9---9---9-9h10p9----7"-10"-9"-------------------|
|--------------8------------------10-------------8"--------------|

|----------------------------------------------------------------|
|----------------------------------------------------------------|
|----------------------------------------------------------------|
|-----------7"-----0---7-----------------------7"------9"-11"----|
|-7"-10"-9"------9---9---9-9h10p9----7"-10"-9"------10"----------|
|--------------8------------------10-------------8"--------------|

|----------------------------------------------------------------|
|----------------------------------------------------------------|
|----------------------------------------------------------------|
|-----------7"-----0---7-----------------------7"---10-9p10h9-7--|
|-7"-10"-9"------9---9---9-9h10p9----7"-10"-9"-------------------|
|--------------8------------------10-------------8"--------------|

Let me know if you think it's correct or let me know any correction.
Enjoy!


All times are GMT -5. The time now is 06:11.

Powered by: vBulletin Version 3.0.3
Copyright ©2000 - 2014, Jelsoft Enterprises Ltd.