MetalTabs.com Forum

MetalTabs.com Forum (http://metaltabs.com/forum/index.php)
-   Guitar Zone (http://metaltabs.com/forum/forumdisplay.php?f=2)
-   -   anyone know any tapppin? (http://metaltabs.com/forum/showthread.php?t=4365)

+--deifiler--+ 2002-12-18 06:56

anyone know any tapppin?
 
hiya

im after some more two handed tappin to learn, preferbly more advanced shit (not tryna be all cocky but the standard one string apreggiated taps are borin to learn)

ive got the mozart ;rondo alla turca' down, so im hopin for someone on here to know more tappin beasts

thanks.. much appreciated

Piper5150 2002-12-18 08:01

van halen has some koo stuff and grouge lynch is good
cheack them out

scayer 2002-12-18 12:35

what about "get the funk" out by extreme?
there's some cool tapping in the solo

scayer

walpurgis 2002-12-18 15:36

One of Satriani's songs, I think it's Mystical Potatohead Groove Thing or something along those lines, has a 6 string tapping part, in the main rhythm of the song...I think it'd be considered the chorus.

MeTalManiac555 2002-12-18 18:46

Yeah the one Walpurgis said, is an ok one.

duckman 2004-12-13 15:21

Quote:
Originally Posted by +--deifiler--+
hiya

im after some more two handed tappin to learn, preferbly more advanced shit (not tryna be all cocky but the standard one string apreggiated taps are borin to learn)

ive got the mozart ;rondo alla turca' down, so im hopin for someone on here to know more tappin beasts

thanks.. much appreciated




dude....watch ozzy live at budokan dvd and watch zakk wylde,,,he does some insane sht,,, he taps with his left hand as he bars the twelf fret with his right nsane

ImmortalHate 2004-12-13 17:33

The tapping part of the solo in Sea of Lies by Symphony X

guitar_demon 2004-12-13 17:47

dudes that guy hasnt posted in over a year, why did you bring this thread back from the dead?

hiimjosh 2004-12-21 10:15

I have a control exercise I could send you. I don't have it right now and it sounds so corny, but it's great. Here are some ideas:

E--12^9^5-----------------------
A----------------12^9^5---------
D---------12^9^5----------------
G-----------------------12^9^5--

E--12^5^8--12^8^5--12^5^8--12^8^5--
You can bounce around with different shapes using different timings

E--0^3^5^6^12^6^5^3^0--
Tap the twelve and play the rest legato


EDIT: Stupid revival... There's some stuff for reference anyhow

YJM04 2005-04-09 09:02

Quote:
Originally Posted by +--deifiler--+
hiya

im after some more two handed tappin to learn, preferbly more advanced shit (not tryna be all cocky but the standard one string apreggiated taps are borin to learn)

ive got the mozart ;rondo alla turca' down, so im hopin for someone on here to know more tappin beasts

thanks.. much appreciated


joe satriani- midnight (very crazy)
joe satriani- satch boogie (fun)
steve vai- rescue me or bury me (insane)
symphony X- sea of lies (crazy)
steve vai is the one u wanna try and learn. but those r some songs that will get u all tapped out

DeathCS 2005-04-09 12:11

dumbass...

younguitarist 2005-04-09 12:37

word..

ManOwaR 2005-04-10 08:03

Quote:
Originally Posted by YJM04
joe satriani- midnight (very crazy)
joe satriani- satch boogie (fun)
steve vai- rescue me or bury me (insane)
symphony X- sea of lies (crazy)
steve vai is the one u wanna try and learn. but those r some songs that will get u all tapped out


wow I think you're the most annoying dumbfuck that I've ever seen on this board. Learn to write you god damn asshole, I only know of one person that gets away with spelling like that here and he only gets away with it becuase he ain't an annoying cowfucker like you.

garr1 2005-04-10 08:38

try this by paul gilbert
it's called green tinted sixstie's mind


-0h2p0-------0h7p5p0--------------0h5h7-12-7p5---------------
---------0------------------------------------------------------
--------------------------2h4-----------------------------------
-----------------------------------------------------------------
-----------------------------------------------------------------
-----------------------------------------------------------------

--17---10h12--17--5h7--16----0h4p0h4h7----12-s-16-s-12--------
------------------------------------------------------------------
------------------------------------------------------------------
------------------------------------------------------------------
------------------------------------------------------------------
------------------------------------------------------------------

--7p4p0----------------------------------------------------------
------------------------------------------------------------------
------------------------------------------------------------------
------------------------------------------------------------------
------------------------------------------------------------------
------------------------------------------------------------------

its really hard to learn straight off but it's got a really cool sound to it

garr1 2005-04-10 08:42

for some reason when i put the t sign in for tap on the tab
they all go to one side.

active corpse fucker 2005-04-10 09:05

you can easily see where the tabs should be so its all good

good tab

active corpse fucker 2005-04-10 09:07

i also want to say i love ManOwar's signature hehehehehe

Zertonshfits 2005-04-10 18:50

damn you garr, i was gonna say green tinted...
but for your good tast i ow you a beer :beer:

garr1 2005-04-10 19:22

thanks man :beer:


All times are GMT -5. The time now is 04:36.

Powered by: vBulletin Version 3.0.3
Copyright ©2000 - 2014, Jelsoft Enterprises Ltd.