MetalTabs.com Forum

MetalTabs.com Forum (http://metaltabs.com/forum/index.php)
-   Guitar Zone (http://metaltabs.com/forum/forumdisplay.php?f=2)
-   -   pick sweeping (http://metaltabs.com/forum/showthread.php?t=3200)

alexguitargodbu 2002-09-15 00:22

pick sweeping
 
Im new to the thing you call "pik sweeping". I need pointers. I need to know how to finger this.

|12-------------------------------------------|
|----13-------------12-13-15--------------|
|--------14-----14--------------------------|
|------------14------------------------------|
|----------------------------------------------|
|----------------------------------------------|

Becker rules 2002-09-15 08:20

Re: pick sweeping
 
Quote:
Originally posted by alexguitargodbu
Im new to the thing you call "pik sweeping". I need pointers. I need to know how to finger this.
--1--2---3-3---3--1---2---4
|12-------------------------------------------|
|----13-------------12-13-15--------------|
|--------14-----14--------------------------|
|------------14------------------------------|
|----------------------------------------------|
|----------------------------------------------|

alexguitargodbu 2002-09-15 17:47

Re: Re: pick sweeping
 
Quote:
Originally posted by Becker rules


are you sure? if you use your 3rd finger for both of those notes they will both
ring and you cant have that.
I would make it go like this:1 2 3 2 3 1 2 4

PsychoHoliday 2002-09-15 21:30

No, becker's right. Nothin will ring if you play it right, just kinda roll your third finger down, thats really important with sweeping, basically you have to have no pauses, not even a split second with el sweep, once you hit one note you have to roll or play the next note instantaneously. My opinion, becker's fingering= way to go

morbid_death 2002-09-16 10:13

ye, becker is correct. but you'd have to make sure you have a 'rolling' action happening otherwise they'll ring. practice it at like...5bpm....(lol....well, maybe quicker duh) until you have it down CLEANLY! make sure you half release one finger as you press the next to get a smooth clean sound happening. nothing more pointless than playing it at 4567543785687863568535783567bpm when it sounds like slop.

Becker rules 2002-09-16 16:17

Re: Re: Re: pick sweeping
 
Quote:
Originally posted by alexguitargodbu


are you sure? if you use your 3rd finger for both of those notes they will both
ring and you cant have that.
I would make it go like this:1 2 3 2 3 1 2 4


Like everyone else said You gotta learn to roll your fingers, and mute strings to stop them from ringing thats what makes sweeping difficult

alexguitargodbu 2002-09-17 22:50

hmm, good advice. how would you finger this part:
|13-----------------------13-----|
|---15----------------15---------|
|------16---16---16-------------|
|---------17---17----------------|
|------------------------------------|
|------------------------------------|

PsychoHoliday 2002-09-17 23:22

would i would do. . .







1 2 3 4 3 4 3 2 1
|13-----------------------13-----|
|---15----------------15---------|
|------16---16---16-------------|
|---------17---17----------------|
|------------------------------------|
|------------------------------------|

PsychoHoliday 2002-09-17 23:24

Fuck, you still get the point though. . . just match em up

Cthulhu0610 2002-09-23 22:47

i played with the one sweep picking thing, and i got it down in two minutes, thanks for the fingering advice, i'm gonna be doing that shit for awhile now lol it's fun, thanks again:beer:


All times are GMT -5. The time now is 06:18.

Powered by: vBulletin Version 3.0.3
Copyright ©2000 - 2014, Jelsoft Enterprises Ltd.