MetalTabs.com Forum

MetalTabs.com Forum (http://metaltabs.com/forum/index.php)
-   Guitar Zone (http://metaltabs.com/forum/forumdisplay.php?f=2)
-   -   Help Me On A Sweep (http://metaltabs.com/forum/showthread.php?t=3170)

ADE 2002-09-12 17:41

Help Me On A Sweep
 
how can i do it with my 4 fingers???



|---------------------------12--17-p-12----------------------------|
|----------------------13-------------------13----------------------|
|-----------------14-----------------------------14-----------------|
|------------14---------------------------------------14------------|
|-------15-------------------------------------------------15-------|
|--17-----------------------------------------------------------17--|

atifman 2002-09-12 18:41

do this instead:

|---------------------------12--17-p-12---------------------------|
|----------------------13-------------------13----------------------|
|-----------------14-----------------------------14-----------------|
|------------14---------------------------------------14------------|
|---12h15------------------------------------------------15p12--|
|---------------------------------------------------------------------|

it'll sound about the same

ADE 2002-09-12 18:48

Too easy :p

I've found it on www.insaneguitar.com and the man
says to make it using 6 strings...

if possible i wanted to know the method, so, thank u atif for now =)

Squall 2002-09-13 01:03

|----------------------------------------------(1)-12-(4)-17-p-(1)-12----------------------------|
|--------------------------------------(2)-13------------------------------(2)-13------------------|
|------------------------------(3)-14-----------------------------------------------(3)-14---------|
|----------------------(3)-14--------------------------------------------------------------(3)-14--|
|--(1)-12-h-(4)-15---------------------------------------------------------------------------------|
|------------------------------------------------------------------------------------------------------|

alright...//i put the left fingers in pharentesis man..../ in the 15 fret you will have to put a bar with your third left finger but try to keep it separeted enough to not touch the second string....if u cant then you gotta be quick and chage quick....//not pretty easy though....but as in all things in guitar....the only key to do it is to slow down as a turtle or more....//ehehe lemme tell ya this is one of the easiest patterns of sweep picking...jason becker uses some weird positions...oohh jason becker!!! your the best!!!

Squall 2002-09-13 01:08

|-----------------------------------------(1)-12-(4)-17-p-12----------------------------|
|---------------------------------(2)-13------------------------13----------------------|
|-------------------------(3)-14-----------------------------------14-----------------|
|-----------------(2)-14----------------------------------------------14------------|
|---------(3)-15---------------------------------------------------------15-------|
|-(4)-17---------------------------------------------------------------------17--|

i guess is that way...///

ADE 2002-09-13 07:03

Ok thak u very much

mrweijia 2002-09-13 09:00

how hard would this be?:

-------------------12------------------
----------------12----12--------------
-------------12----------12-----------
---------12-----------------12--------
-----12------------------------12-----
-12-------------------------------12--

metal=life 2002-09-13 09:49

thats fuckin east as all hell...and it would sound gay distorted

metal=life 2002-09-13 09:53

|----------------------12h17p12-------------------------------------
|--------------12----------------------12------------------------------
|---------12--------------------------------12--------------------------
|-----14-----------------------------------------14---------------------
|-14--------------------------------------------------14----------------
|-------------------------------------------------------------------------

.....if u want a LITTLE challenge...:rolleyes:

leper 2002-09-14 18:46

why is that a chalange if you dont mind me asking?

metal=life 2002-09-14 21:57

Quote:
Originally posted by leper
why is that a chalange if you dont mind me asking?


i was being sarcastic....

ADE 2002-09-19 09:40

That's Right! thank u boys


All times are GMT -5. The time now is 01:40.

Powered by: vBulletin Version 3.0.3
Copyright ©2000 - 2014, Jelsoft Enterprises Ltd.