MetalTabs.com Forum

MetalTabs.com Forum (http://metaltabs.com/forum/index.php)
-   Bass Zone (http://metaltabs.com/forum/forumdisplay.php?f=3)
-   -   Post Your Basslines (http://metaltabs.com/forum/showthread.php?t=21363)

Tulvox 2005-05-27 19:11

Post Your Basslines
 
Hey all, I'm just curious as to what some of my fellow bass players create. Feel free to share something you've wrote or comment on others.

I'll start us off:

G--4---4---------4---4-----------4---4---------4---4-----------
D--2---2-02h3p2-2---2--02h3p2--2---2-02h3p2-2---2--02h3p2--
A---------------------------------------------------------------
E---------------------------------------------------------------
B---------------------------------------------------------------

G--5---5---------5---5---------5---5---------5---5--------
D--3---3-03h4p3-3---3-03h4p3-3---3-03h4p3-3---3-0-3-5--
A----------------------------------------------------------
E----------------------------------------------------------
B----------------------------------------------------------


G-----------------------------------------10p9-9p7-7p5-3p0-5--
D--7---7-0-5-7--7---7-0-5-7--7---7-x-x-x-------------------3--
A---------------------------------------------------------------
E---------------------------------------------------------------
B---------------------------------------------------------------

I wrote this just recently. It's moderatly slow and not to difficult. I hope to see someone respond.

:beer:

Zionist 2005-05-27 20:50

Here is a little bass part I play in my band.

G|-----------------------------------------4h5h4---------------
D|-----------------------------------5-7----------7--5---------
A|-----------------5--7----------5-----------------------------
E|-5---5-5-5-5-5---------5---5--------------------------7---8-

----------------------------------------5----------
---------------------------------------------5--7--
-------------8h7h5-----------------5h7---7--------
--8-8-8-8-8-------5---0---0--0-0------------------


There is more I just don't like posting it all.

Sodomaniac 2005-05-28 05:36

G---9---9---7---7----7---7---5---5----9---9---7---7----7---7---5---5--
D-7---7---9---9----5---5---7---7----7---7---5---5----9---9---7---7----
A------------------------------------------------------------------------
E------------------------------------------------------------------------

G---7---7---5---5----5---5---3---3----7---7---5---5----5---5---3---3--|
D-5---5---7---7----3---3---5---5----5---5---3---3----7---7---5---5----|
A-----------------------------------------------------------------------|
E-----------------------------------------------------------------------|

This could be a an intro.


G----10-12---------------8-10-----------6-8-----------------------
D-12-------10-8-------10------8-6-----8-----6-4-------------5-7--
A----------------10-8--------------8-6-----------6-4---5-7------7-
E-----------------------------------------------------7-----5------

G----------------|
D---------5-7-7~|
A---5-7----------|
E-7-----5--------|

And this could be a small solo.

Subsonic6string 2005-05-31 02:21

It may look familiar, but...lol
 
Okay, I know I've posted this tab once before, in the tapping thread, but here it is again, for those that never thought about it...

I play this in a 6/4 time with a triplet feel. When you reach the end of the second bar, repeat the whole thing once. (If you look in the "post YOUR band" thread, there's a link to the song where it's used, it's at the end of the song)

Enjoy

C ------5-----------5----------------8----------- (left ring finger)
G --7-----7-----7-----7-------10-------10-------- (right middle finger)
D ----7-----7-----7-----7--------10-------10----- (right index finger)
A 5-----------5-------------8-------------------- (left index finger)
E ------------------------------------------------
B ------------------------------------------------


C ------4-----------4--------------7------------- (left ring finger)
G --6-----6-----6-----6-------9------9----------- (right middle finger)
D ----6-----6-----6-----6-------9------9--------- (right index finger)
A 4-----------4-------------7-------------------- (left index finger)
E ------------------------------------------------
B ------------------------------------------------

As soon as I get a bit of time on my hands (lol) I'll take the time to tab out some more of our stuff. Not tapping, but some very interesting runs and riffs.

Cheers

:beer:

Tulvox 2005-05-31 22:09

I liked Sodomaniac's little bit. I haven't gotten a chance to try the others.

Summer break is coming up so I'll have a few to put up in a day or so.

Tattered 2005-06-01 06:04

Hmm, i might post up one of my random slap basslines or tapping basslines.. it will take a while, but i might! ;)

:beer:

Tulvox 2005-06-01 17:27

Here is a little slap bit I've had in my head for about a week.

G----------33-5-5-55-------------------3-3-3---------
D---5x5x55---3-3-3--3h5p3--5x5x55-33-1-1-1-1h2p1---
A--------------------------3--------------------------
E--3--------------------------------------------------
B------------------------------------------------------

DeathCS 2005-06-01 17:58

basslines?
dont you bassist realize that you only play what the guitarists play? :p

Tulvox 2005-06-01 18:59

CC, You're a penis. :)

Zionist 2005-06-01 19:07

Quote:
Originally Posted by Tulvox
CC, You're a penis. :)

Correction:

CC, you have a small penis. :)

Tulvox 2005-06-01 19:20

Aggreed...silly Minnesotans... :beer:

Tattered 2005-06-02 06:44

Quote:
Originally Posted by DeathCS
basslines?
dont you bassist realize that you only play what the guitarists play? :p


Hahahhahahahahahahaha...ah..ha.....h..a :rolleyes:


;)

DeathCS 2005-06-02 16:04

Quote:
Originally Posted by Zionist
Correction:

CC, you have a small penis. :)

you'd know.

younguitarist 2005-06-02 17:37

Quote:
Originally Posted by DeathCS
basslines?
dont you bassist realize that you only play what the guitarists play? :p


Amen :D :p

Zionist 2005-06-02 20:29

Quote:
Originally Posted by DeathCS
you'd know.


You're the one who always sends me anonymous pics of it.

Tulvox 2005-06-02 23:46

Tattered, I guess you were right about guitarists not hearing any good bass players. :beer: Good call my friend.

cw4119 2005-06-05 23:29

Quote:
Originally Posted by DeathCS
basslines?
dont you bassist realize that you only play what the guitarists play? :p


Wow, one of the most untrue and stupid posts ive ever seen

Tulvox 2005-06-10 00:00

An intro....


G--19-19-19-19-19-19-22-22-21-21-24-24--
D---0--0--0--0--0--0---0--0--0--0--0--0--
A------------------------------------------
E------------------------------------------
B------------------------------------------

It kinda has the same ambient effect as the bass intro to Led Zeppelin's Kashmir.

Disincarnate 2005-06-14 10:52

Quote:
Originally Posted by cw4119
Wow, one of the most untrue and stupid posts ive ever seen


agreed

blizzard_beast 2005-06-14 11:19

Haha guess who this is:

http://www.digitalsoundplanet.com/M...2_000028767.mp3

http://www.digitalsoundplanet.com/M...2_000028768.mp3

Where can I buy this sort of shit!?


All times are GMT -5. The time now is 08:04.

Powered by: vBulletin Version 3.0.3
Copyright ©2000 - 2014, Jelsoft Enterprises Ltd.