MetalTabs.com Forum

MetalTabs.com Forum (http://metaltabs.com/forum/index.php)
-   Tab Questions & Requests (http://metaltabs.com/forum/forumdisplay.php?f=6)
-   -   Marduk tab that needs to be finished (http://metaltabs.com/forum/showthread.php?t=17086)

SlayedJesus 2005-01-09 18:17

Marduk tab that needs to be finished
 
if anyone here is interested in being the co-author of the folowing tab please post your additions/corrections. i would apreciate it very much

SlayedJesus 2005-01-09 18:18

Band: MARDUK
Album: FUCK ME JESUS
Song: DEPARTURE FROM THE MORTAL


Transcribed By: SlayedJesus
Email: proletario66@hotmail.com


. - palm mute / - slide up to
\ - slide down to ~ - vibrato
h - hammer on b - Bend
p - pull off Suffixes for bend
t - tap f - full bend h - half bend
ph - pinched harmonic q - quarter bend t - tap bend
* - see comment ^ - Hold bend r release bend
x - Stuccatto ~ - vibrato bend
, - slight palm mute () - ghost note, sustained note
" - tremolo note <> - Trill

Riff A
_________________________________ 2x
|-----------------------|---------------|
|-----------------------|---------------|
|-----------------------|---------------|
|-----------------------|----6-5---6-5--|
|-----2-----3-----6-6---|--4-----4------|
|-----0-----1-----4-4---|---------------|

---------------|
---------------|
---------------|
----8-7---8-7--| 2nd guitar
--6-----6------|
---------------|


Riff B ???? (im not sure about this riff)
____________________________ 3x
|-------------------------|-------|
|-------------------------|-------|
|-------------------------|-------|
|----------------3--------|-----3-|
|------------3-2----------|-3-2---|
|--0-00001-0--------------|-------|


Riff C

|-----------------------------|
|-----------------------------|
|-----------------------------|
|-----7"-8"-7"-5"-4"-5"-------|
|---5"------------------------|
|-----------------------------|

Riff ? missing some riffs between this two


|------------------------------------------------|
|------------------------------------------------|
|------------------------------------------------|
|------------------------------------------------|
|---7--10-9--7--6--7--9---7--10-9--7--6---7------|
|---5--8--7--5--4--5--7---5--8--7--5--4---5------|


Riff ?

|----------------------------------------------|
|----------------------------------------------|
|----------------------------------------------|
|----------------------------------------------|
|-----------------------7--10-9--7--6---7------|
|--5--8--7--5--4--5--7-5--8--7--5--4---5------|


|----------------------------------------------|
|----------------------------------------------|
|----------------------------------------------| gtr 2
|--7--10-9--7--6--7--9-------------------------|
|-----------------------7--10-9--7--6---7------|
|-----------------------5--8--7--5--4---5------|


All times are GMT -5. The time now is 17:14.

Powered by: vBulletin Version 3.0.3
Copyright ©2000 - 2014, Jelsoft Enterprises Ltd.