MetalTabs.com Forum

MetalTabs.com Forum (http://metaltabs.com/forum/index.php)
-   Tab Questions & Requests (http://metaltabs.com/forum/forumdisplay.php?f=6)
-   -   2 bad ass requests (http://metaltabs.com/forum/showthread.php?t=16578)

Reign 2004-12-21 12:39

2 bad ass requests
 
Could someone tab out

Nightrage - The Tremor
and
Astriaal - Glories Of The Night Sky

Would appreciate it alot, thanks.

Rick Metal 2004-12-22 11:25

1 Attachment(s)
Merry Christmas!

Be sure to give me some feedback, I would greatly appreciate it.

Reign 2004-12-25 22:09

Thanks very much sir.

How do I leave feedback though?

younguitarist 2004-12-25 22:13

What he means by feedback is to tell him that if its accurate or very bad.

Reign 2004-12-26 00:19

Oh, yeah sounds good.

And even though it's pretty much the same,

--------------------------------------------------------------------------
--------------------------------------------------------------------------
--------------------------------------------------------------------------
--------------------------------------------------------------------------
--3--2---------------------3--2-7-8-7--5-3-5---2-------------------------
--3--2---------------------3--2-7/8/7--5-3-5-3-2-------------------------
00--0--000-000-000-000-00--0--------------------------------------------

It's easier to play this way.

--------------------------------------------------------------------------
--------------------------------------------------------------------------
--------------------------------------------------------------------------
---------------------------------2-3-2-0----------------------------------
--3--2---------------------3--2-2-3-2-0-2-3-2---------------------------
--3--2---------------------3--2----------2-3-2---------------------------
00--0--000-000-000-000-00--0--------------------------------------------

Rick Metal 2004-12-27 11:16

Yeah it's quite easier to play that way.


All times are GMT -5. The time now is 07:54.

Powered by: vBulletin Version 3.0.3
Copyright ©2000 - 2014, Jelsoft Enterprises Ltd.