MetalTabs.com Forum

MetalTabs.com Forum (http://metaltabs.com/forum/index.php)
-   Chit Chat (http://metaltabs.com/forum/forumdisplay.php?f=14)
-   -   HAPPY FUCKING BIRTHDAY POST WHORE FUCK! (http://metaltabs.com/forum/showthread.php?t=15138)

DeathCS 2004-10-25 17:56

HAPPY FUCKING BIRTHDAY POST WHORE FUCK!
 
Happy B-day Disincarnate. Post whore. :rolleyes:
:birthday:

Transient 2004-10-25 17:59

you suck at posting. never the less :birthday:

younguitarist 2004-10-25 18:00

:birthday: :birthday:
:birthday: :birthday:
:birthday: :birthday:

bitch

DeathCS 2004-10-25 18:10

Be nice to him. Its his birthday!
:birthday:

BeastOfCarrion 2004-10-25 18:14

:birthday:

BassBehemoth 2004-10-25 18:18

Happy Birthday man, have a good one! :beer:

ManOwaR 2004-10-25 18:20

happy birthday to you, happy birthday to you, happy birthday Disincarnate happy birthday to you :birthday: (btw this isn't the normal version of the song but some brutal metal version of it :vampire: )

Rapture 2004-10-25 18:23


--------------------------------
--------------------------------
--------------------------------
----------3-2-------------5-3---
-3-3-5-3---------3-3-5-3-------
--------------------------------

--------------------------------------
--------------------------------------
--------------------------------------
------7-5-3-2-0------8-8-7-3-5-3----
-3-3----------------------------------
-------------------------------------


figure it out cunt, its not hard.

:birthday:

L,B'XXX 2004-10-25 18:28

All good people were born in October. Geez, there must have been a lot of cold January's. :)


:birthday: :birthday: :birthday:

BassBehemoth 2004-10-25 18:33

Quote:
Originally Posted by Andrew1331

--------------------------------
--------------------------------
--------------------------------
----------3-2-------------5-3---
-3-3-5-3---------3-3-5-3-------
--------------------------------

--------------------------------------
--------------------------------------
--------------------------------------
------7-5-3-2-0------8-8-7-3-5-3----
-3-3----------------------------------
-------------------------------------


figure it out cunt, its not hard.

:birthday:



That version sucks.

Rapture 2004-10-25 18:35

Quote:
Originally Posted by BassBehemoth
That version sucks.


its true. when i play it i either

A) use full power chords

or

B) do it on the 2 high strings and throw in a lot of trills and bends and such

i just didnt feel like taking the time to tab it like that

guitar_demon 2004-10-25 19:13

when i saw this my first thought was bls or dissection

DeathCS 2004-10-25 20:36

Yeah, but its not. BLSs birthday is June 8th.

Soulinsane 2004-10-25 20:38

:birthday: get some :beer:

corroded 2004-10-25 21:45

:birthday:

FearFrost 2004-10-25 22:42

Eat A Dick
:birthday:

Morbid+Roach 2004-10-25 22:47

:birthday:

BLS 2004-10-25 23:31

Quote:
Originally Posted by guitar_demon
when i saw this my first thought was bls or dissection


:birthday: :birthday: :birthday: :birthday: :birthday: :birthday: :birthday:
:birthday:

Def 2004-10-26 02:27

have a good one cunt.

:beer: beer is your friend.

BrokenCrimson 2004-10-26 02:37

Happy grim and necro milestone of your abominable journey towards a glacial death. Actually, don't be happy. That's not grim and necro enough. :vampire:


Kidding, :birthday: :beer: :drunk: :stoned: :love: :cool: :smash: :D


All times are GMT -5. The time now is 06:21.

Powered by: vBulletin Version 3.0.3
Copyright ©2000 - 2014, Jelsoft Enterprises Ltd.